Cifra Club

Aprenda

Whole lotta love

Led Zeppelin

Tablatura: Versão 5 (guitarra)
Tom: D
h = hammer on
p = pull off
s = slide
b = bend
r = release bend
( ) = nota deve soar mas nao deve ser palhetada

Introdução: Riff 1:

E|----------------------------------------------------------------------
B|----------------------------------------------------------------------
G|----------------------------------------------------------------------
D|----------------------------------------------------------------------
A|-----5-----5--7-------7-------7-------7-------7-------7-----7--7p5----
E|--7-----7--------0-0-----0-0-----0-0-----0-0-----0-0-----0------------

Verso: Riff 2:

E|----------------------------------------------------------------------
B|----------------------------------------------------------------------
G|----------------------------------------------------------------------
D|----------------------------------------------------------------------
A|-----5-----5--7-------7-------7---------------------------------------
E|--7-----7--------0-0-----0-0------------------------------------------

Refrão: Riff 3:

E|----------------------------------------------------------------------
B|----------------------------------------------------------------------
G|----------------------------------------------------------------------
D|--7-7-7-7-7-9---------------------------------------------------------
A|--5-5-5-5-5-7---------------------------------------------------------
E|----------------------------------------------------------------------

Solo:

E|----------------------------------------------------------------------
B|---------17-15-12-----------------------------------------------------
G|---15h16----------14-14-12-14-12-14b(16v)-----------------------------
D|----------------------------------------------------------------------
A|----------------------------------------------------------------------
E|----------------------------------------------------------------------

E|----------------------------------------------------------------------
B|------3---------------------------------------------------------------
G|--3s4---4p2p0-2p0---0-------------------------------------------------
D|------------------2---2p0-2p0-----------------------------------------
A|------------------------------2---------------------------------------
E|--------------------------------0-------------------------------------

E|----------------------------15----------------------------------------
B|--------17-15b(17r)-15b(17)----15b(17v)-------------------------------
G|--15h16---------------------------------------------------------------
D|----------------------------------------------------------------------
A|----------------------------------------------------------------------
E|----------------------------------------------------------------------

E|----------------------------------------------------------------------
B|--17-20b(22)r(20)p(17)----17-20-17------------------------------------
G|-----------------------19---------------------------------------------
D|----------------------------------------------------------------------
A|----------------------------------------------------------------------
E|----------------------------------------------------------------------

E|-----21b(23)-21-19-17-------------------------------------------------
B|--17------------------20-17-20-17v------------------------------------
G|----------------------------------------------------------------------
D|----------------------------------------------------------------------
A|----------------------------------------------------------------------
E|----------------------------------------------------------------------

E|-----15-17b(18)-17b(18)-17b(18)-19------------------------------------
B|--15-------------------------------17---------------------------------
G|----------------------------------------------------------------------
D|----------------------------------------------------------------------
A|----------------------------------------------------------------------
E|----------------------------------------------------------------------
Compositor Jimmy Page / John Bonham / John Paul Jones / Robert Plant
Colaboración y revision:
  • Iuri Gama
32 reproducciones
  • Simplificar cifra
    • ½ Tom
    • A
    • Bb
    • B
    • C
    • Db
    • D
    • Eb
    • E
    • F
    • F#
    • G
    • Ab
  • Adicionar à lista

    0 comentarios

    Mostrar mais comentários

    ¿Conseguiste tocar?

    0 Tocaron 0 Ainda não

    Grave um vídeo tocando Whole lotta love e mande pra gente!

    00:00 / 00:00
    outros vídeos desta música
    repetir qualidade Automático
    Outros vídeos desta música
    00:00 / 00:00
    Automático
    OK