Cifra Club

Aprenda

Há Tempos

Legião Urbana

Tablatura: Principal (guitarra)
tono: D
[Intro] D  Am7  D  G
        D  Am7  D  G

   D
E|---5-----3-----2-----3-2------------------|
B|-----3-----3-----3-------3----------------|
G|-------2-----2-----2-------2--------------|
D|-0----------------------------------------|
A|------------------------------------------|
E|------------------------------------------|

   Am7
E|---3-----3-----3-----3-----3--------------|
B|-----1-----1-----1-------1---1------------|
G|-------0-----0-----0----------------------|
D|------------------------------------------|
A|-0----------------------------------------|
E|------------------------------------------|

   D
E|---5-----3-----2-----3-2------------------|
B|-----3-----3-----3-------3----------------|
G|-------2-----2-----2-------2--------------|
D|-0----------------------------------------|
A|------------------------------------------|
E|------------------------------------------|

   G     
E|---3-----3---------------3----------------|
B|-----3-----3-----------3----3-------------|
G|-5-----5-----5------4---------4-----------|
D|------------------------------------------|
A|------------------------------------------|
E|------------------------------------------|

[Primeira Parte]

D               Am7                    
  Parece cocaína, mas é só tristeza 
D               Am7
  Talvez tua cidade
           D             
 Muitos temores nascem do cansaço 
Am7
   E da solidão
D            Am7
  Descompasso, desperdício
    G                      Em
Herdeiros são agora da virtude que perdemos
D                   Am7         
 Há tempos tive um sonho 
        D              Am7
Não me lembro, não me lembro

F                      C   F           
  Tua tristeza é tão exata   
                      C
E hoje o dia é tão bonito
D                  Am7 
 Já estamos acostumados   
D                       G4  G
  A não termos mais nem isso

     D              Am7       
 Os sonhos vêm, os sonhos vão
   D            Am7
O resto é imperfeito
     D                  Am7
 Disseste que se tua voz 
                  D           
 Tivesse força igual 
                  Am7
À imensa dor que sentes

       G                  Em
 Teu grito acordaria não só a tua casa
        D               Am7
 Mas a vizinhança inteira 
 D             Am7
  E há tempos nem os santos 

[Segunda Parte]

  F                C
 Têm ao certo a medida da maldade
       F                          C
 E há tempos são os jovens que adoecem
        F                      C
 E há tempos o encanto está ausente
                       F
 E há ferrugem nos sorrisos
                           C
 E só o acaso estende os braços 
                           A4  A  A7
 A quem procura abrigo e pro__te_ção

       D                 G
 Meu amor, disciplina é liberdade
D             G   
 Compaixão é fortaleza
D               G
 Ter bondade é ter coragem
        D            
 Lá em casa tem um poço
      G          D
Mas a água é muito limpa
Composição de Dado Villa-Lobos / Marcelo Bonfá / Renato Russo
Colaboración y revision:
13.220 reproducciones
  • Simplificar cifra
    • ½ Tono
    • A
    • Bb
    • B
    • C
    • Db
    • D
    • Eb
    • E
    • F
    • F#
    • G
    • Ab
  • Adicionar à lista

    0 comentarios

    Ver todos os comentários
    00:00 / 00:00
    outros vídeos desta música
    repetir qualidade Automático
    Outros vídeos desta música
    00:00 / 00:00
    Automático
    OK