Cifra Club

Tempo Perdido

Legião Urbana

Cifrado: Principal (guitarra y guitarra eléctrica)
Selo Cifra Club: esta cifra foi revisada para atender aos critérios oficiais da nossa Equipe de Qualidade.
tono: Em
[Intro] Em  C  Am7  Bm  Em

[Tab - Intro]

   C7M
E|-----------------------------------------|
B|-------12-------12-------12-------12-----|
G|----12-------12-------12-------12--------|
D|-10-------10-------10-------10-----------|
A|-----------------------------------------|
E|-----------------------------------------|

  Am7                        Bm7
E|-----------------------------------------|
B|----8-----8------8------8-------10-----10|
G|--9-----9------9------9------11------11--|
D|7-----7------7------7------9-------9-----|
A|-----------------------------------------|
E|-----------------------------------------|

                   E5
E|-----------------------------------------|
B|------10------10-------------------------|
G|---11------11-----------9-----9-----9----|
D|-9-------9------------9---9-----9-----9--|
A|-------------------7--------7-----7------|
E|-----------------0-----------------------|

   D5
E|-----------------------------------------|
B|-----------------------------------------|
G|---7-------------------------------------|
D|-----7-----------------------------------|
A|-5---------------------------------------|
E|-----------------------------------------|

[Primeira Parte]

[Tab - Estrofes]

    C                  Am7
E|-----------------------------------------|
B|------1-1-1---0-1--------1-----3-----1---|
G|----0------------------0---0-----0-----0-|
D|--2---------2--------2-------------2----2|
A|3------------------0---------------------|
E|-----------------------------------------|

    Bm7                   Em
E|--------------------------------2----3---|
B|------0-3-----1-----------0-------0----0-|
G|----2----2------2-----------0-0----0----0|
D|--0--------0------0-----2----------------|
A|2-------------------2--------------------|
E|----------------------0------------------|

[Tab - Variação]

    Am7
E|-----------------------------------------|
B|------1---------3------------------------|
G|----0---0-----0---0----------------------|
D|--2-------2/4----------------------------|
A|0----------------------------------------|
E|-----------------------------------------|

          C                 Am7
Todos os dias quando acordo
Bm                   Em
   Não tenho mais o tempo que passou
           C          Am7
Mas tenho muito tempo
       Bm              Em
Temos todo o tempo do mundo
C               Am7
  Todos os dias antes de dormir
 Bm                          Em
Lembro e esqueço como foi o dia
 C               Am7
Sempre em frente
     Bm               Em
Não temos tempo a perder
        C          Am7
Nosso suor sagrado
            Bm
É bem mais belo que esse
         Em
Sangue amargo
       C    Am7
E tão sério

      Bm  Em
E selva__gem
      Bm  Em
E selva__gem
      Bm   (passagem)
E selvagem

[Tab - Passagem]

      H.N.     . . . .
B|-----------------------------------------|
G|-----12----------7-----------------------|
D|-----12--------7---7---------------------|
A|-----12------7---------------------------|
E|-----------------------------------------|
E|-0---------------------------------------|

[Segunda Parte]

 C                   Am7         Bm
Veja o sol dessa manhã tão cinza
         Em                  C
A tempestade que chega é da cor
               Am7
Dos teus olhos
    Bm  Em
Casta_nhos
            C         Am7
Então me abraça forte
   Bm
E diz mais uma vez
          Em       C         Am7
Que já estamos distantes de tudo

 Bm                  Em
Temos nosso próprio tempo
 Bm                  Em
Temos nosso próprio tempo
 Bm                  Em
Temos nosso próprio tempo

[Terceira Parte]

     C         Am7           Bm
Não tenho medo     do escuro
          Em          C        Am7
Mas deixe    as luzes   acesas
  Bm  Em
Ago__ra

       C                  Am7
O que foi escondido é o que se escondeu
         Bm
E o que foi prometido
     Em
Ninguém prometeu
         C            Am7
Nem foi tempo perdido
           Bm  Em
Somos tão jo__vens
     Bm  Em        Bm   (passagem)
Tão jo__vens, tão jovens
Otros videos de esta canción
    14.226.359 exhibiciones
    • Simplificar cifrado
      • ½ Tono
      • Am
      • Bbm
      • Bm
      • Cm
      • C#m
      • Dm
      • Ebm
      • Em
      • Fm
      • F#m
      • Gm
      • G#m
    • Agregar a la lista

    Afinación de cifrado

    Afinador online

      Capítulos
      • Início
      • Tocando a música
      • Acordes da Introdução
      • Tocando Introdução
      • Ensinando Introdução (Violão Solo)
      • Acordes da Primeira Parte
      • Tocando Primeira Parte
      • Ensinando Estrofes (Violão Solo)
      • Ensinando Estrofes - Variação (Violão Solo)
      • Ensinando ritmo (Violão base)
      • Acordes da Passagem
      • Tocando Passagem
      • Ensinando Passagem (Violão Solo)
      • Encerramento
      OK