Cifra Club

Aprenda

Words I Cound't Say

Leighton Meester

Tablatura: Principal (guitarra)
tono: F# (con acordes en la forma de C) Capotraste na 6ª casa
Intro:
E|---------------------------------------------------------------------------|
B|-0----0----0---------------------------------------------------------------|
G|--0----0----0----2----2----2----0----0----0----2----2----2-----------------|
D|---0----0---------0----0----0----2----2----2----0----0----0----------------|
A|-------------------0----0---------2----2---------0----0--------------------|
E|---------------------------------------------------------------------------|

Verso 1:
E|---------------------------------------------------------------------------|
B|-0----0----0---------------------------------------------------------------|
G|--0----0----0----2----2----2----0----0----0----2----2----2-----------------|
D|---0----0---------0----0----0----2----2----2----0----0----0----------------|
A|-------------------0----0---------2----2---------0----0--------------------|
E|---------------------------------------------------------------------------|
In a book, in a box, in the closet...

E|---------------------------------------------------------------------------|
B|-0----0----0---------------------------------------------------------------|
G|--0----0----0----2----2----2----0----0----0----2----2----2-----------------|
D|---0----0---------0----0----0----2----2----2----0----0----0----------------|
A|-------------------0----0---------2----2---------0----0--------------------|
E|---------------------------------------------------------------------------|
In a line, in a song, I once heard

E|---------------------------------------------------------------------------|
B|-1----1----1----0----0----0------------------------------------------------|
G|--2----2----2----0----0----0----1----1----1----1----1----1-----------------|
D|---2----2---------0----0---------0----0----0----0----0----0----------------|
A|----------------------------------0----0---------0----0--------------------|
E|---------------------------------------------------------------------------|
In a moment on a front porch late one June...

E|---------------------------------------------------------------------------|
B|-1----1----1----0----0----0------------------------------------------------|
G|--2----2----2----0----0----0----1----1----1----1----1----1-----------------|
D|---2----2---------0----0---------0----0----0----0----0----0----------------|
A|----------------------------------0----0---------0----0--------------------|
E|---------------------------------------------------------------------------|
In a breath insdide a whisper beneath the moon...

E|---------------------------------------------------------------------------|
B|-0----0----0---------------------------------------------------------------|
G|--0----0----0----2----2----2----0----0----0----2----2----2-----------------|
D|---0----0---------0----0----0----2----2----2----0----0----0----------------|
A|-------------------0----0---------2----2---------0----0--------------------|
E|---------------------------------------------------------------------------|
There it was on the tips of my fingers...
There it was on the tip of my tongue...

E|---------------------------------------------------------------------------|
B|-1----1----1----0----0----0------------------------------------------------|
G|--2----2----2----0----0----0----1----1----1----1----1----1-----------------|
D|---2----2---------0----0---------0----0----0----0----0----0----------------|
A|----------------------------------0----0---------0----0--------------------|
E|---------------------------------------------------------------------------|
There you were and I had never been that far..

E|---------------------------------------------------------------------------|
B|-1----1----1----0----0----0------------------------------------------------|
G|--2----2----2----0----0----0----2----2----2----2----2----2-----------------|
D|---2----2---------0----0---------3----3----3----3----3----3----------------|
A|----------------------------------0----0---------0----0--------------------|
E|---------------------------------------------------------------------------|
There you were, the whole world wrapped inside my arms...

E|---------------------|
B|---------------------|
G|-0----0----0----2----|
D|--2----2----2----3---|
A|---2----2---------0--|
E|---------------------|

                        F
And I let it all slip away

Refrão:
G                  F
What do I do now that you're gone
   C
No back up plan no second chance
   Em           D
And no one else to blame
G                    F            C
All I can hear in the silence that remains
        D
Are the words I couldn't say

Verso 2:
There's a rain that'll never stop fallin'
There's a wall that I tried to take down
What I should've said just wouldn't pass my lips
So I held back and now we've come to this
And it's too late now

(Refrão)

Ponte:
            Am             G              F
I should've found a way to tell you how I felt
                     Am         F
Now the only one I'm tellin' is myself

(Refrão)
Composição de Gregory Becker / Steve Robson / Tammi Kidd
Colaboración y revision:
  • Alicia Dias
82 reproducciones
    • ½ Tono
    • A
    • Bb
    • B
    • C
    • Db
    • D
    • Eb
    • E
    • F
    • F#
    • G
    • Ab
  • Adicionar à lista

    0 comentarios

    Ver todos os comentários

    ¿Conseguiste tocar?

    1 Tocaram 0 Ainda não

    Grave um vídeo tocando Words I Cound't Say e nos envie!

    00:00 / 00:00
    outros vídeos desta música
    repetir qualidade Automático
    Outros vídeos desta música
    00:00 / 00:00
    Automático
    OK