Cifra Club

Because Its Midnight

Limozeen

Tablatura: Principal
reproducciones 29
Tono: F
Because It's Midnite - Limozeen

Tabbed by Jeff Orom

Listen to the song for timing. Standard tuning.

Guitar One - Larry Palaroncini
Guitar Two - Gary Palaroncini

Intro

Guitar One - Lead
e|----------------------------|----------------10-13-10----|
B|------------------13--------|-13----------13-------------|
G|-12b14----12br--------------|----14-12-14----------------|
D|---------------15-----------|----------------------------|
A|----------------------------|----------------------------|
E|----------------------------|----------------------------|

Guitar Two - Rhythm
e|----------------------------|----------------------------|
B|----------------------------|----------------------------|
G|-----7-7-------10-----------|-5-5------------------7-----|
D|-----7-7-------10-----------|-5-5------------------7-----|
A|-----5-5-------8------------|-3-3------------------5-----|
E|----------------------------|----------------------------|

Guitar One - Lead
e|-----10---------10-------13-|-13-15-17p15p13-15-17-20-22-|
B|-------------------13-10----|----------------------------|
G|----------------------------|----------------------------|
D|----------------------------|----------------------------|
A|----------------------------|----------------------------|
E|----------------------------|----------------------------|

Guitar Two - Rhythm
e|----------------------------|----------------------------|
B|----------------------------|----------------------------|
G|-----7-7-------10-----------|-5-5------------------7-----|
D|-----7-7-------10-----------|-5-5------------------7-----|
A|-----5-5-------8------------|-3-3------------------5-----|
E|----------------------------|----------------------------|

Verse One (Play Twice)
                                                            / don't play this \
Guitar Two - Rhythm                                         \ the second time /
e|----------------------------------------------------------|-----------------|
B|----------------------------------------------------------|-----------------|
G|----------------------------------------------------------|-----------------|
D|-7-7-7-7-7-7-7-10-10-10-10-10-10-10-10-10-5-5-5-5-5-5-5-7-|-7-7-7-7-7-7-7-7-|
A|-5-5-5-5-5-5-5-8--8--8--8--8--8--8--8--8--3-3-3-3-3-3-3-5-|-5-5-5-5-5-5-5-5-|
E|----------------------------------------------------------|-----------------|

Chorus (Play twice)

Guitar One - Lead
e|----------------------------|------------------------------|
B|----------------------------|------------------------------|
G|-7----------------9-10-9----|-7------------10-9-7----7-9-7-|
D|-------------------------10-|---------------------10-------|
A|----------------------------|------------------------------|
E|----------------------------|------------------------------|

Guitar Two - Rhythm
e|----------------------------|----------------------------|
B|----------------------------|----------------------------|
G|-----7-7-------10-----------|-5-5------------------7-----|
D|-----7-7-------10-----------|-5-5------------------7-----|
A|-----5-5-------8------------|-3-3------------------5-----|
E|----------------------------|----------------------------|

Verse Two (Play Twice, palm muted)
                                                   /  don't play this  \
Guitar Two - Rhythm                                \  the second time  /
e|-------------------------------------------------|-------------------|
B|-------------------------------------------------|-------------------|
G|-------------------------------------------------|-------------------|
D|---------------------2---2---2-------------------|-------------------|
A|-3-5-5-3-5-5-5-3-3-3---3---3---3-3-5-5-3-5-5-5-5-|-5-5-5-5-5-5-5-5-5-|
E|-------------------------------------------------|-------------------|

Chorus Two (Play twice)

Guitar One - Lead
e|----------------------------|------------------------------|
B|----------------------------|------------------------------|
G|-7----------------9-10-9----|-7------------10-9-7----7-9-7-|
D|-------------------------10-|---------------------10-------|
A|----------------------------|------------------------------|
E|----------------------------|------------------------------|

Guitar Two - Rhythm
e|----------------------------|----------------------------|
B|----------------------------|----------------------------|
G|-----7-7-------10-----------|-5-5------------------7-----|
D|-----7-7-------10-----------|-5-5------------------7-----|
A|-----5-5-------8------------|-3-3------------------5-----|
E|----------------------------|----------------------------|

*Keyboard Solo*

Bridge (Play twice)

Guitar One - Lead
e|----------------------------|----------------------------------------|
B|----------------------------|----------------------------------------|
G|-7----------------9-10-9----|-7------------10---9-10-9----7----------|
D|-------------------------10-|--------------------------10---------10-|
A|----------------------------|----------------------------------------|
E|----------------------------|----------------------------------------|

e|----------------------------|------------------------------|
B|----------------------------|------------------------------|
G|-12-12-12-12b14-12br-10~~~--|------------------------------|
D|----------------------------|------------------------------|
A|----------------------------|------------------------------|
E|----------------------------|------------------------------|

Verse Three (Play Twice)
                                                            / don't play this \
Guitar Two - Rhythm                                         \ the second time /
e|----------------------------------------------------------|-----------------|
B|----------------------------------------------------------|-----------------|
G|----------------------------------------------------------|-----------------|
D|-7-7-7-7-7-7-7-10-10-10-10-10-10-10-10-10-5-5-5-5-5-5-5-7-|-7-7-7-7-7-7-7-7-|
A|-5-5-5-5-5-5-5-8--8--8--8--8--8--8--8--8--3-3-3-3-3-3-3-5-|-5-5-5-5-5-5-5-5-|
E|----------------------------------------------------------|-----------------|

Chorus Three (Play twice)

Guitar One - Lead
e|----------------------------|------------------------------|
B|----------------------------|------------------------------|
G|-7----------------9-10-9----|-7------------10-9-7----7-9-7-|
D|-------------------------10-|---------------------10-------|
A|----------------------------|------------------------------|
E|----------------------------|------------------------------|

Guitar Two - Rhythm
e|----------------------------|----------------------------|
B|----------------------------|----------------------------|
G|-----7-7-------10-----------|-5-5------------------7-----|
D|-----7-7-------10-----------|-5-5------------------7-----|
A|-----5-5-------8------------|-3-3------------------5-----|
E|----------------------------|----------------------------|

Outro

Guitar One - Lead
e|----------------------------|----------------10-13-10----|
B|------------------13--------|-13----------13-------------|
G|-12b14----12br--------------|----14-12-14----------------|
D|---------------15-----------|----------------------------|
A|----------------------------|----------------------------|
E|----------------------------|----------------------------|

Guitar Two - Rhythm
e|----------------------------|----------------------------|
B|----------------------------|----------------------------|
G|-----7-7-------10-----------|-5-5------------------7-----|
D|-----7-7-------10-----------|-5-5------------------7-----|
A|-----5-5-------8------------|-3-3------------------5-----|
E|----------------------------|----------------------------|

Guitar One - Lead
e|-----10---------10-------13-|-13-15-17p15p13-15-17-20-22-|-10-10-10-10-|
B|-------------------13-10----|----------------------------|-------------|
G|----------------------------|----------------------------|-------------|
D|----------------------------|----------------------------|-------------|
A|----------------------------|----------------------------|-------------|
E|----------------------------|----------------------------|-------------|

Guitar Two - Rhythm
e|----------------------------|----------------------------|-------------|
B|----------------------------|----------------------------|-------------|
G|-----7-7-------10-----------|-5-5------------------7-----|-------------|
D|-----7-7-------10-----------|-5-5------------------7-----|-7--7--7--7--|
A|-----5-5-------8------------|-3-3------------------5-----|-5--5--5--5--|
E|----------------------------|----------------------------|-------------|

Lyrics


Walkin' the streets
I got a feelin'
It's leather-tough
You better believe it
Wakin' up late
Asleep in the gutter
Breakin' the chains! You'd better cut me some

Heart of a lion
And the wings of a bat
Because it's midnite!
Got the heart of a lion
And the wings of a bat
Because it's midnite!

Sunset Strip
California
West Hollywood
I'm gonna warn ya
Street smart soldiers
Takin' up arms
Bringin' the metal back to where it belongs!

Heart of a lion
And the wings of a bat
Because it's midnite!
Got the heart of a lion
And the wings of a bat
Because it's midnite!

{solo}

Liquid and leather
In equal measure
Champagne glass
Mix 'em together

Sweet city sweat
Vampire love
Crimson flows down
From the wings of a dove
Floatin' over the pavement
Guitars take flight
Wearin' my tightest pants, because it's midnite!

Heart of a lion
And the wings of a bat
Because it's midnite!
Got the heart of a lion
And the wings of a bat
Because it's midnite!

Ow! Ow! Ow!
Oooh
Acordes para:
    Colaboración y revision:
    • Caio Simoneti

    0 comentarios

      mostrar más comentarios

      ¿Conseguiste tocar?

      1tocaron0aún no

      ¡Graba un vídeo tocando Because Its Midnight y envianoslo!

      00:00 / 00:00
      outros vídeos desta música
      repetirqualidadeautomática
      Outro vídeos desta música
        00:00 / 00:00
        automática
        OK