Cifra Club

Magra

Lenine

Cifrado: Principal (guitarra y guitarra eléctrica)
tono: B
Riff 1

------------------------------------------------------------------------
-9-9----9-9-----9-----9-------------------------------------------------
--8-6-7--8-6-8-8-6-7-8-8-6-8--------------------------------------------
------------------------------------------------------------------------
------------------------------------------------------------------------
------------------------------------------------------------------------

Riff 2
----------------------------------------------------------------------
-----------------------------------------------------------------------
-----------------------------------------------------------------------
-8-9-4-4/6-4----8-9-4-1/2-1--------------------------------------------
-----------------------------------------------------------------------
-----------------------------------------------------------------------

Riff 3
------------------------
------------------------
------------------------
------------------------
-8-9-4-6--8-9-4-6-------
------------------------

Riff 4
---------------------------------------------------------
---------------------------------------------------------
---------------------------------------------------------
----4=4--------------------4=4---------------------------
--------4-2-4-6=6-6=6----------4=4-2=2-4=4-6/\6----------
4-7--------------------4-7-------------------------------

Introdução
Riff1x
Riff1 + Riff2 2x

Riff3
MOÇA
PERNAS DE PINÇA
ALTA
CORPO DE LANÇA
MAGRA
OLHOS DE CORÇA
LEVE
TODA CORTIÇA

Riff1+Riff2

Riff3
PASSA
COMO QUE NUA
CALMA
FINGE QUE VOA
BRASA
CHAMA NA AREIA
BELA
COMO EU QUERIA

Riff4
MAGRA, LEVE, CALMA
TODA ELA BELA
TUDO NELA CHAMA
MAGRA, LEVE, CALMA
TODA ELA BELA
TUDO NELA CHAMA

Riff1+Riff2

Riff3
SEGUE
ENQUANTO SUSPIRO
TODA
COR DE TEMPERO
CHEIRA
UM CHEIRO TÃO RARO
CLARA
CURA O ESCURO
ELA
BRAÇOS DE LINHA
DENGO
CHEIO DE MANHA
DURMO
E PEÇO QUE VENHA
ACORDO
E SONHO QUE É MINHA

Riff4
MAGRA, LEVE, CALMA
TODA ELA BELA
TUDO NELA CHAMA
MAGRA, LEVE, CALMA
TODA ELA BELA
TUDO NELA CHAMA

Riff1+Riff2
Composición de Ivan Santos / Lenine
Colaboración y revisión:
  • Francisco Meyer
278 vistas
    • ½ Tono
    • A
    • Bb
    • B
    • C
    • Db
    • D
    • Eb
    • E
    • F
    • F#
    • G
    • Ab
  • Agregar a la lista

    0 comentarios

    Ver todos los comentarios

    ¿Lograste tocar?

    1 Tocaron 0 Aún no

    ¡Graba un video tocando Magra y envíanoslo!

    00:00 / 00:00
    Outros vídeos desta música
    Repetir Calidad Automático
    Outros vídeos desta música
    00:00 / 00:00
    Automático
    OK