Cifra Club

O Céu É Muito

Lenine

Cifrado: Principal (guitarra y guitarra eléctrica)
tono: E
(intro)
E |--------------------------------------------------------------------------------
B |--------------------------------------------------------------------------------
G |--------------------------------------------------------------------------------
D |-----9--8-/--6---4--/--8---4-/--4--6--------------------------------------------
A |-----7--6-/--4---2--/--6---6-/--2--4----------------------4---------------------
D |--0------------------------------------------0-------0----2---0---0---0--------- (2x)

".....O  tempo e longo pra qm fica ... o mundo e largo pra qm fita ...”
qnd tiver isso se toca o
A |---------x—5---6---7---9
D |---------x---3---4---5---7------

Na hr do solinho no final
O base que e Lenine toca

E |-----------------------------------------------------------------
B |-----------------------------------------------------------------
G |-----------------------------------------------------------------
D |-----9--/--7--/--5-----8--/--6--/--4-----------------------------
A |-----7--/--5--/--3-----6--/--4--/--2-----------------------------
D |--0---------------0----------------------------------------------

E o solo que e tostoi toca

E |-------------------------------------------------------------
B |--3-3-5-5-6-6-8-8-10-10-10--13-13-13-------------------------
Composición de Arnaldo Antunes / Lenine
Colaboración y revisión:
  • Roney Silva
  • Raphael
66 vistas
    • ½ Tono
    • A
    • Bb
    • B
    • C
    • Db
    • D
    • Eb
    • E
    • F
    • F#
    • G
    • Ab
  • Agregar a la lista

    0 comentarios

    Ver todos los comentarios

    ¿Lograste tocar?

    0 Tocaron 0 Aún no

    ¡Graba un video tocando O Céu É Muito y envíanoslo!

    00:00 / 00:00
    Outros vídeos desta música
    Repetir Calidad Automático
    Outros vídeos desta música
    00:00 / 00:00
    Automático
    OK