Cifra Club

Samba do Quilombo

Lenine

Cifrado: Principal (guitarra y guitarra eléctrica)
tono: Eb
OBS: na gravação o violão ta um pouco acima da afinação.

- Intr:
                                            _
   C7M(9)  Bb7M(9) / F7M(9)  Eb7M(9)         |
E|-----10----8-------------------------|      |
A|-----12----10----------8----6--------|      |
D|-----9-----7-----------9----7--------|      |
G|--10-----8-------------7----5--------|      |
B|--------------6-7~8--8----6---1-2~3--|      |
e|--------------6-7~8-----------1-2~3--|      |
                                             | 2x
                                             |
   C7M(9)  Bb7M(9) / F7M(9)  Eb7M(9)         |
E|-----10----8-------------------------|      |
A|-----12----10----------8----6--------|      |
D|-----9-----7-----------9----7--------|      |
G|--10-----8-------------7----5--------|      |
B|--------------6-7~8--8----6---1-2----|      |
e|--------------6-7~8------------------|     _|
                                            

                                                         _
  Cm4       Ab7(13) G7(13)  Cm4        F#7(13) F7(13)     |
E|--------------------------------------------------|      |
A|----------------6----5--------------------4----3--|      | 
D|----------------5----4--------------------3----2--|      | 2x
G|------2-2-------4----3----------2-2-------2----1--|      |
B|--3-6-6-6-------------------3-6-6-6---------------|      |
e|----------------4----3--------------------2----1--|     _|

---x--- ---x--- ---x--- ---x--- ---x--- ---x--- ---x--- ---x--- ---x--- ---x---

                                                         _
  Cm4       Ab7(13) G7(13)  Cm4        F#7(13) F7(13)     |
E|--------------------------------------------------|      |
A|----------------6----5--------------------4----3--|      | 
D|----------------5----4--------------------3----2--|      | 2x
G|------2-2-------4----3----------2-2-------2----1--|      |
B|--3-6-6-6-------------------3-6-6-6---------------|      |
e|----------------4----3--------------------2----1--|     _|


Saiu do congo num navio negreiro
Baixou no litoral
Batuque banzo no chão do terreiro
Pra suportar o mal


   Bb9                    F9           Ab9
Correu, fugiu, sofreu, sumiu e subiu o morro
        Eb9        F7(11)      G7(11)
E o horizonte era o fundo do quintal...

                                                         _
  Cm4       Ab7(13) G7(13)  Cm4        F#7(13) F7(13)     |
E|--------------------------------------------------|      |
A|----------------6----5--------------------4----3--|      | 
D|----------------5----4--------------------3----2--|      | 2x
G|------2-2-------4----3----------2-2-------2----1--|      |
B|--3-6-6-6-------------------3-6-6-6---------------|      |
e|----------------4----3--------------------2----1--|     _|



Os atabaques gritam na macumba
No ancestrais
Na voz do blue, no rebolado da rumba
Tem nego por detrás


    Bb9             F9                  Ab9
Vem invadindo todas as fronteiras da história
        Eb9       F7(11)    G7(11)
Rumo ao futuro, em pleno temporal...


Ab9                     F7(11)
Minha terra tem palmares onde Zumbi foi eleito
     Ab9               F7(11)
E os negos que lá quilombaram
                                                         _
  Cm4       Ab7(13) G7(13)  Cm4        F#7(13) F7(13)     |
E|--------------------------------------------------|      |
A|----------------6----5--------------------4----3--|      | 
D|----------------5----4--------------------3----2--|      | 3x
G|------2-2-------4----3----------2-2-------2----1--|      |
B|--3-6-6-6-------------------3-6-6-6---------------|      |
e|----------------4----3--------------------2----1--|     _|

Sambaram do meu jeito
Sambaram do meu jeito
Sambaram do meu jeito

                                                         _
  Cm4       Ab7(13) G7(13)  Cm4        F#7(13) F7(13)     |
E|--------------------------------------------------|      |
A|----------------6----5--------------------4----3--|      | 
D|----------------5----4--------------------3----2--|      | 2x
G|------2-2-------4----3----------2-2-------2----1--|      |
B|--3-6-6-6-------------------3-6-6-6---------------|      |
e|----------------4----3--------------------2----1--|     _|

Mas a negada é pau pra toda obra
E é de decidir
Quem sabe samba e quem não samba sobra
Ou paga pra assistir


     Bb9          F9          Ab9
Pela avenida foi-se o suor da nega
          Eb9      F7(11)       G7(11)
Mão nas cadeiras, fazendo um carnaval


Ab9                     F7(11)
Minha terra tem palmares onde Zumbi foi eleito
     Ab9               F7(11)
E os negos que lá quilombaram
                                                         _
  Cm4       Ab7(13) G7(13)  Cm4        F#7(13) F7(13)     |
E|--------------------------------------------------|      |
A|----------------6----5--------------------4----3--|      | 
D|----------------5----4--------------------3----2--|      | 3x
G|------2-2-------4----3----------2-2-------2----1--|      |
B|--3-6-6-6-------------------3-6-6-6---------------|      |
e|----------------4----3--------------------2----1--|     _|

Sambaram do meu jeito
Sambaram do meu jeito
Sambaram do meu jeito

Composición de Lenine
Colaboración y revisión:
  • Bruno Conde
91 vistas
    • ½ Tono
    • A
    • Bb
    • B
    • C
    • Db
    • D
    • Eb
    • E
    • F
    • F#
    • G
    • Ab
  • Agregar a la lista

    0 comentarios

    Ver todos los comentarios

    ¿Lograste tocar?

    0 Tocaron 0 Aún no

    ¡Graba un video tocando Samba do Quilombo y envíanoslo!

    00:00 / 00:00
    Otros videos de esta canción
    Repetir Calidad Automático
    Otros videos de esta canción
    00:00 / 00:00
    Automático
    OK