Cifra Club

Ain't over 'til it's over

Lenny Kravitz

Cifrado: Principal (guitarra y guitarra eléctrica)
tono: E
Intro: C#     C#maj7    C#7    F#  F#m 
 
 
 
C#           C#maj7  
   Here we are  
              C#7            
   Still together  
               F#    F#m  
   we are one  
C#           C#maj7  
   so much time wasted  
C#7                   F#    F#m  
   playing games with love  
C#  
  So many tears I've cried  
C#maj7  
  So much pain inside  
C#7                                F#     F#m  
  But baby it ain't over 'til it's over  
C#  
  So many years we've tried  
C#maj7  
  To keep our love alive  
C#7                                F#   F#m  
  But baby it ain't over 'til it's over   
C#           C#maj7    
   How many times  
  
   Did we give up  
C#7                            F#      F#m  
   But we always worked things out  
C#  
   and all my doubts and fears  
           C#maj7  
   Kept me wondering yeah  
 C#7                  F#      F#m  
   If I'd always, always be in love  
C#  
  So many tears I've cried  
C#maj7  
  So much pain inside  
C#7                                F#    F#m  
  But baby it ain't over 'til it's over  
C#  
  So many years we've tried  
C#maj7  
  To keep our love alive  
C#7                                F#    F#m  
  But baby it ain't over 'til it's over   
SOLO:  
  
  A                   B                                 A  
                 
|----------------)--|------------16-------------------|---------------------|  
|--------------19---|-19--19-19------19\--------14-17-|----14\-----------)--|  
|-------------------|------------------------16-------|----------------16---|  
|-------------------|---------------------------------|---------------------|  
|-------------------|---------------------------------|---------------------|  
|-------------------|---------------------------------|---------------------|  
  
  B                               A  
|-------------------------------|----------------------------------|  
|------------14-----------------|----------------------------------|  
|-16--16-16------16\---------)--|-12--12-12--10--13---13---12-10---|  
|--------------------------15---|----------------------------------|  
|-------------------------------|----------------------------------|  
|-------------------------------|----------------------------------|  
  
  B                           G  
|---------------------------|-----------------------------------------------|  
|---------------------------|--12h13p12--11h12p11--10h11p10--9h10p9--8h9p8--|  
|-10--10-10--12--10\--------|-----------------------------------------------|  
|---------------------------|-----------------------------------------------|  
|---------------------------|-----------------------------------------------|  
|---------------------------|-----------------------------------------------|  
  
  D         E               
|-------10--10/12-------|-----------------|  
|-----------------------|-----------------|  
|-----------------------|-----------------|  
|-----------------------|-----------------|  
|-----------------------|-----------------|  
|-----------------------|-----------------|  
  
  
  
  
REFRAO FINAL:  
  
 (Na musica original esta parte é tocada com uma Sitar)  
   C#                    C#maj7               C#7              F#        F#m  
||---------------------|--------------------|--------------------|-------------------|  
||---------------------|--------------------|--------------------|-------------------|  
||*6----------6h8--6---|-5------------------|----------------6---|-------------------|  
||*--------------------|----------6----8----|-9----------------8-|---------6---------|  
||---------------------|--------------------|--------------------|-------9-----------|  
||---------------------|--------------------|--------------------|-------------------|  
  
  C#                    C#maj7               C#7               F#        F#m  
|---------------------|--------------------|---------------------|-------------------||  
|---------------------|--------------------|---------------------|-------------------||  
|-6----------6h8--6---|-5------------------|---------------------|------------------*||  
|---------------------|----------6----8----|-9------------9--6-8-|---------6--------*||  
|---------------------|--------------------|---------------------|-------9-----------||  
|---------------------|--------------------|---------------------|-------------------||  
  
  
 Chorus:  
   So many tears I've cried  
   So much pain inside  
   Baby it ain't over 'til it's over  
   So many years we've tried   
   And kept our love alive  
   'Cause baby it ain't over 'til it's over  
  
 (Repete 1x )
00:00 / 00:00
Otros videos de esta canción
Repetir
Otros videos de esta canción
Composición de Lenny Kravitz
16.245 exhibiciones
    • ½ Tono
    • A
    • Bb
    • B
    • C
    • Db
    • D
    • Eb
    • E
    • F
    • F#
    • G
    • Ab
  • Agregar a la lista
    00:00 / 00:00
    OK