Cifra Club

Blues For Sister Someone

Lenny Kravitz

Cifrado: Principal (guitarra y guitarra eléctrica)
tono: C
ALBUM:  Let love rule
TABBER: Domenico Lovascio (Italy)-this is dedicated to Giulia-
E-MAIL: *

I know a girl who gets off, by sticking needles in her vein
E--------------------------------------------------------------------
B--------------------------------------------------------------------
G--------------------------------------------------------------------
D-7-7-7-7-7-7-7-7-7-7-7-7-7-7-7-7-7-7-7-7-7-7-7-7-7-7-7-7------------
A-5-5-5-5-5-5-5-5-5-5-5-5-5-5-5-5-5-5-5-5-5-5-5-5-5-5-5-5-5-5-5-5-5-5
E---------------------------------------------------------3-3-3-3-3-3

Oh Lord, what a shame!
E--------------------------------------------------------------------
B--------------------------------------------------------------------
G--------------------------------------------------------------------
D-------------------------------7-7-7-7-7-7-7-7-7-7-7-7-7-7-7-7-7-7-7
A-5-5-5-5-5-5-5-5-5-5-5-5-5-5-5-5-5-5-5-5-5-5-5-5-5-5-5-5-5-5-5-5-5-5
E-3-3-3-3-3-3-3-3-3-3-3-3-3-3-3--------------------------------------

 She's got no money so she turns tricks and plays dirty games
E--------------------------------------------------------------------
B--------------------------------------------------------------------
G--------------------------------------------------------------------
D-7-7-7-7-7-7-7-7-7-7-7-7-7-7-7-7-7-7-7-7-7-7-7-7-7-7-7-7------------
A-5-5-5-5-5-5-5-5-5-5-5-5-5-5-5-5-5-5-5-5-5-5-5-5-5-5-5-5-5-5-5-5-5-5
E---------------------------------------------------------3-3-3-3-3-3

 Oh Lord spare her pain
E--------------------------------------------------------------------
B--------------------------------------------------------------------
G--------------------------------------------------------------------
D-------------------------------7-7-7-7-7-7-7-7-7-7-7-7-7-7-7-7-7-7-7
A-5-5-5-5-5-5-5-5-5-5-5-5-5-5-5-5-5-5-5-5-5-5-5-5-5-5-5-5-5-5-5-5-5-5
E-3-3-3-3-3-3-3-3-3-3-3-3-3-3-3--------------------------------------

What she say she do to you      you'd have to be insane
E--------------------------------------------------------------------
B--------------------------------------------------------------------
G--------------------------------------------------------------------
D-7-7s10-10-10-10-10-10-10-10-10-10-10-10s12--12--12--12--12--12s7-7-
A-5-5s8--8--8--8--8--8--8--8--8--8--8--8-s10--10--10--10--10--10s5-5-
E--------------------------------------------------------------------

The bathroom stall, her bedroom the one that's always engaged
E--------------------------------------------------------------------
B--------------------------------------------------------------------
G--------------------------------------------------------------------
D-7-7-7-7-7-7-7-7-7-7-7-7-7-7-7-7-7-7-7-7-7-7-7-7-7-7-7-7------------
A-5-5-5-5-5-5-5-5-5-5-5-5-5-5-5-5-5-5-5-5-5-5-5-5-5-5-5-5-5-5-5-5-5-5
E---------------------------------------------------------3-3-3-3-3-3

She sleeps and eats with the plague
E--------------------------------------------------------------------
B--------------------------------------------------------------------
G--------------------------------------------------------------------
D-------------------------------7-7-7-7-7-7-7-7-7-7-7-7-7-7-7-7-7-7-7
A-5-5-5-5-5-5-5-5-5-5-5-5-5-5-5-5-5-5-5-5-5-5-5-5-5-5-5-5-5-5-5-5-5-5
E-3-3-3-3-3-3-3-3-3-3-3-3-3-3-3--------------------------------------

E--------------------------------------------------------------------
B----------------------------------10-10(1/4b)-----------------------
G----------------------------------10-10(1/4b)-12-10-12---(repeat)---
D----------------------------------------------12-10-12----(this)----
A----------------------------------------------------------(lick)----
E--------------------------------------------------------------------

She's got a baby in her belly but she just don't care
E--------------------------------------------------------------------
B--------------------------------------------------------------------
G--------------------------------------------------------------------
D-7-7-7-7-7-7-7-7-7-7-7-7-7-7-7-7-7-7-7-7-7-7-7-7-7-7-7-7------------
A-5-5-5-5-5-5-5-5-5-5-5-5-5-5-5-5-5-5-5-5-5-5-5-5-5-5-5-5-5-5-5-5-5-5
E---------------------------------------------------------3-3-3-3-3-3

E--------------------------------------------------------------------
B-10-10(1/4b)-------------10-10(1/4b)------------10-10(1/4b)---------
G-10-10(1/4b)-12-10-12----10-10(1/4b)-12-10-12---10-10(1/4b)-12-10-12
D-------------12-10-12----------------12-10-12---------------12-10-12
A--------------------------------------------------------------------
E--------------------------------------------------------------------

What will become of the pair
E--------------------------------------------------------------------
B--------------------------------------------------------------------
G--------------------------------------------------------------------
D-------------------------------7-7-7-7-7-7-7-7-7-7-7-7-7-7-7-7-7-7-7
A-5-5-5-5-5-5-5-5-5-5-5-5-5-5-5-5-5-5-5-5-5-5-5-5-5-5-5-5-5-5-5-5-5-5
E-3-3-3-3-3-3-3-3-3-3-3-3-3-3-3--------------------------------------

E--------------------------------------------------------------------
B-10-10(1/4b)-------------10-10(1/4b)------------10-10(1/4b)---------
G-10-10(1/4b)-12-10-12----10-10(1/4b)-12-10-12---10-10(1/4b)-12-10-12
D-------------12-10-12----------------12-10-12---------------12-10-12
A--------------------------------------------------------------------
E--------------------------------------------------------------------

Oh Lord what can she do to get the shit out her hair 
E--------------------------------------------------------------------
B--------------------------------------------------------------------
G--------------------------------------------------------------------
D-7-7s10-10-10-10-10-10-10-10-10-10-10-10s12--12--12--12--12--12s7-7-
A-5-5s8--8--8--8--8--8--8--8--8--8--8--8-s10--10--10--10--10--10s5-5-
E--------------------------------------------------------------------

E------5------5------5------5------5------5------5------5------------
B-8b10---8b10---8b10---8b10---8b10---8b10---8b10---8b10---8b10-------
G--------------------------------------------------------------------
D--------------------------------------------------------------------
A--------------------------------------------------------------------
E--------------------------------------------------------------------

to get the shit out her hair
E--------------------------------------------------------------------
B--------------------------------------------------------------------
G--------------------------------------------------------------------
D-7-7-7-7-7-7-7-7-7-7-7-7-7-7-7-7-7-7-7-7-7-7-7-7-7-7-7-7-7-7-7-7-7-7
A-5-5-5-5-5-5-5-5-5-5-5-5-5-5-5-5-5-5-5-5-5-5-5-5-5-5-5-5-5-5-5-5-5-5
E--------------------------------------------------------------------

E--------------------------------------------------------------------
B-10-10(1/4b)-------------10-10(1/4b)------------10-10(1/4b)---------
G-10-10(1/4b)-12-10-12----10-10(1/4b)-12-10-12---10-10(1/4b)-12-10-12
D-------------12-10-12----------------12-10-12---------------12-10-12
A--------------------------------------------------------------------
E--------------------------------------------------------------------

 Oh Lord it's not fair          Blues for sister someone 
E--------------------------------------------------------------------
B--------------------------------------------------------------------
G--------------------------------------------------------------------
D-7-7-7-7-7-7-7-7-7-7-7-7-7-7-7-7-7-7-7-7-7-7-7-7-7-7-7-7-7-7-7-7-7-7
A-5-5-5-5-5-5-5-5-5-5-5-5-5-5-5-5-5-5-5-5-5-5-5-5-5-5-5-5-5-5-5-5-5-5
E--------------------------------------------------------------------

E--------------------------------------------------------------------
B-10-10(1/4b)-------------10-10(1/4b)------------10-10(1/4b)---------
G-10-10(1/4b)-12-10-12----10-10(1/4b)-12-10-12---10-10(1/4b)-12-10-12
D-------------12-10-12----------------12-10-12---------------12-10-12
A--------------------------------------------------------------------
E--------------------------------------------------------------------

Oh Lord!!!!!!!!
E------------------------------------------------------------------------
B------------------------------------------------------------------------
G------------------------------------------------------------------------
D-------------------------------------------------------------------10-12
A-0-0-0-0-2-2-2-2-3-3-3-3-4-4-4-4-5-5-5-5-5-4-4-5-6-7-7-10-11-12-12------
E------------------------------------------------------------------------

E------5------5------5------5--------------------------------------------
B-8b10---8b10---8b10---8b10---8b10---------------------------------------
G------------------------------------------------------------------------
D------------------------------------------------------------------------
A------------------------------------------------------------------------
E------------------------------------------------------------------------
End song jammin on D5 around the basic riffs
00:00 / 00:00
Otros videos de esta canción
Repetir
Otros videos de esta canción
Composición de Lenny Kravitz
87 exhibiciones
    • ½ Tono
    • A
    • Bb
    • B
    • C
    • Db
    • D
    • Eb
    • E
    • F
    • F#
    • G
    • Ab
  • Agregar a la lista
    00:00 / 00:00
    OK