Cifra Club

It ain't over 'til It's over

Lenny Kravitz

Chords: Principal (acoustic and electric guitars)
tone: E
Versão 1
-======-

Intro 2x: C#  Ab/C B  F# F#m

 C#       Ab/C
Here we are
          B
Still together
          F# F#m
We are one

C#          Ab/C
So much time wasted
B                   F# F#m
Playing games with love

C#
 So many tears I've cried
Ab/C
  So much pain inside
B                                F#  F#m
  But baby it ain't over 'til it's over
C#
  So many years we've tried
Ab/C
  To keep our love alive
B                                F#  F#m
  But baby it ain't over 'til it's over

C#         Ab/C
How many times
        B
Did we give up
                            F# F#m
But we always worked things out
C#
and all my doubts and fears
       Ab/C
Kept me wondering yeah
          B                  F#  F#m
If I'd always, always be in love

Solo: A B (4x)
      C#

Versão 2
-======-

Intro / Verso / Refrão:
     C#                    C#maj7
E|--4--4-4--4-4--4-4-4----4--4-4--4-4--4-4-4--|
B|--6--6-6--6-6--6-6-6----6--6-6--6-6--6-6-6--|
G|--6--6-6--6-6--6-6-6----5--5-5--5-5--5-5-5--|
D|--6--6-6--6-6--6-6-6----6--6-6--6-6--6-6-6--|
A|--4--4-4--4-4--4-4-4----4--4-4--4-4--4-4-4--|
E|--------------------------------------------|
     C#9                   F#
E|--4--4-4--4-4--4-4-4----2--2-2--2-2--2-2----|
B|--4--4-4--4-4--4-4-4----2--2-2--2-2--2-2----|
G|--4--4-4--4-4--4-4-4----3--3-3--3-3--3-3----|
D|--6--6-6--6-6--6-6-6----4--4-4--4-4--4-4----|
A|--4--4-4--4-4--4-4-4----4--4-4--4-4--4-4----|
E|------------------------2--2-2--2-2--2-2----|

Verso 1:
C#           C#maj7
   Here we are
              C#9
   Still together
          F#
   we are one
C#           C#maj7
   so much time wasted
C#9                   F#
   playing games with love

Refrão:
C#
  So many tears I've cried
C#maj7
  So much pain inside
C#9                                F#
  But baby it ain't over 'til it's over
C#
  So many years we've tried
C#maj7
  To keep our love alive
C#9                                F#
  But baby it ain't over 'til it's over

Verso 2:
C#           C#maj7
   How many times

   Did we give up
C#9                            F#
   But we always worked things out
C#
   and all my doubts and fears
           C#maj7
   Kept me wondering yeah
          C#9                  F#
   If I'd always, always be in love
Solo:
E|--/16~~~--14-14-14-16-14--------12-----|
B|--------------------------12-14----14--|
G|---------------------------------------|
D|---------------------------------------|
A|---------------------------------------|
E|---------------------------------------|

E|--------------------------------------------------------------|
B|--/14--12-12-12-14-12----/9b-9-9-9-7-9/12-10-9-7---7-7-7-9-7--|
G|--------------------------------------------------------------|
D|--------------------------------------------------------------|
A|--------------------------------------------------------------|
E|--------------------------------------------------------------|

E|-------------------------------10-10/12~~~~--|
B|--1210--109-109--97--7/9---------------------|
G|---------------------------------------------|
D|---------------------------------------------|
A|---------------------------------------------|
E|---------------------------------------------|
00:00 / 00:00
Other videos of this song
Repeat
Other videos of this song
Composed by Lenny Kravitz
Collaboration and Review:
  • Germano Kerber
  • Walter Dutra
3.716 views
    • ½ Tone
    • A
    • Bb
    • B
    • C
    • Db
    • D
    • Eb
    • E
    • F
    • F#
    • G
    • Ab
  • Add to list
    00:00 / 00:00
    OK