Cifra Club

Stillness of Heart

Lenny Kravitz

Chords: Principal (acoustic and electric guitars)
tone: A
[Intro] 

E|----------------------------------------------|
B|----------------------------------------------|
G|-3h5-3h5p3p0------3h5-3h5p3p0-----------------|
D|-------------3h5--------------3h5-------------|
A|----------------------------------------------|
E|----------------------------------------------|

E|----------------------------------------------|
B|----------------------------------------------|
G|-3h5-3h5p3p0------3h5-3h5p3p0-----------------|
D|-------------3h5--------------3h5-------------|
A|----------------------------------------------|
E|----------------------------------------------|
 
Gm
I'm out here on the street
Gm
There's no one left to meet
Gm
The things that were so sweet
Gm
No longer move my feet
          F                Eb
But I keep trying, I keep on trying
 
[Refrão] 
 
Bb               F                    Cm             Eb
All that I want is stillness of heart so I can start
Bb             F               Cm               Eb
To find my way out of the dark and into your heart
 
E|----------------------------------------------|
B|----------------------------------------------|
G|-3h5-3h5p3p0------3h5-3h5p3p0-----------------|
D|-------------3h5--------------3h5-------------|
A|----------------------------------------------|
E|----------------------------------------------|

E|----------------------------------------------|
B|----------------------------------------------|
G|-3h5-3h5p3p0------3h5-3h5p3p0-----------------|
D|-------------3h5--------------3h5-------------|
A|----------------------------------------------|
E|----------------------------------------------|

Gm
I got more than I can eat
Gm
A light that can't be beat
Gm
Yet still I feel this heat
Gm
I'm feeling incomplete
              F                 Eb
What am I buying? My soul is crying

Bb               F                    Cm             Eb
All that I want is stillness of heart so I can start
Bb             F               Cm               Eb
To find my way out of the dark and into your heart
Bb               F                    Cm             Eb
All that I want is stillness of heart so I can start
Bb             F               Cm               Eb
To find my way out of the dark and into your heart
 
             C
Where's the love?
                       Eb     
What is this world we live in?
             C
Where's the love?
                      Eb 
We've got to keep on giving
             C
Where's the love?
                      Eb 
What happened to forgiving?
   F
Anyone?
 
[Solo] Gm

[Refrão]

Bb               F                    Cm             Eb
All that I want is stillness of heart so I can start
Bb             F               Cm               Eb
To find my way out of the dark and into your heart
Bb               F                    Cm             Eb
All that I want is stillness of heart so I can start
Bb             F               Cm               Eb
To find my way out of the dark and into your heart
Bb               F                    Cm             Eb
All that I want is stillness of heart so I can start
Bb             F               Cm               Eb
To find my way out of the dark and into your heart
00:00 / 00:00
Other videos of this song
Repeat
Other videos of this song
Composed by Craig Ross / Lenny Kravitz
Collaboration and Review:
  • Marcus Castro
  • Ricardo Ribeiro
6.244 views
    • ½ Tone
    • A
    • Bb
    • B
    • C
    • Db
    • D
    • Eb
    • E
    • F
    • F#
    • G
    • Ab
  • Add to list
    00:00 / 00:00
    OK