Cifra Club

Pideme la Luna

Leo Dan

Cifrado: Principal (guitarra y guitarra eléctrica)
tono: A
INTRO:

E|--8-6----6-8-| |--8-6---6---
B|------9------| |------9---9-
G 8------------ |8-----------
D|-------------| |------------
A|-------------| |------------
E|-------------| |------------

E|--6---6---6---6---6---6----|
B|----9---9---9---9---9------|
G 8--------------------------
D|---------------------------|
A|---------------------------|
E|---------------------------|

E|--6---6---8-6-----|
B|----9---9-----9---|
G 8-----------------
D|------------------|
A|------------------|
E|------------------|

e 8-8-8-8-8-------10-8-8-
B|----------10-10--------|
G|-----------------------|
D|-----------------------|

e 8-8-8-8--------10-8-6--
B|---------10-10---------|
G|-----------------------|
D|-----------------------|

e 6-6-6-6-6-----8-6-6----
B|----------8-8----------|
G|-----------------------|
D|-----------------------|

e 6-6-6-6-6-----8-6-4----
B|----------8-8----------|
G|-----------------------|
D|-----------------------|

               A
Las horas mas lindas
            Bm
las paso contigo si
    E
no quiero ni pensar si un dia me faltas tu
                      A
no quiero ni pensarlo amor

                  A
1. Tu me acostumbraste
                 Bm
   a ser como unh niño
       E
   no quiero ni pensar si un dia me faltas tu
                          A
   no quiero ni pensarlo amor

                        A
pideme la luna te la bajare
                                 Bm
pideme una estrella hasta alla me ire

mas nunca me digas no te quiero mas
                                     A
porque esas apalabras me hacen mucho mal

pideme la vida y te demostrare
                                Bm
cuanto yo te quise y cuanto te amare

tu fuiste y has sido para mi el amor
                                 A
regalo mas lindo que me ha dado Dios

               A             Bm
Quisiera esta noche tenerte conmigo amor
     E
no quiero ni pensar si un dia me faltas tú
                       A
no quiero ni pensarlo amor
00:00 / 00:00
Otros videos de esta canción
Repetir
Otros videos de esta canción
Composición de Leo Dan
319 vistas
    • ½ Tono
    • A
    • Bb
    • B
    • C
    • Db
    • D
    • Eb
    • E
    • F
    • F#
    • G
    • Ab
  • Agregar a la lista

    0 comentarios

    Ver todos los comentarios

    ¿Lograste tocar?

    1 Tocaron 1 Aún no

    ¡Graba un video tocando Pideme la Luna y envíanoslo!

    00:00 / 00:00
    OK