Cifra Club

Alô

Léo Magalhães

Tablatura: Principal (guitarra)
reproducciones 255
Tono: D
Bm    G    D      A      Bm
Alô, alô, alô, fala comigo
  G      D          A          Bm
Alô, alô, te esquecer não consigo
Bm    G    D      A      Bm
Alô, alô, alô, fala comigo
  G      D          A          Bm
Alô, alô, te esquecer não consigo

       G     D      A      Bm       G      D        A           Bm
E|-----------------7-7----7---------------------------------------|
B|------------7-10-----10----7---7-8------------------------------|
G|------------------------------------7-9/11--7-11-9-7-6----------|
D|-7-9--9-12----------------------------------------------7--7/9--|
A|----------------------------------------------------------------|
E|----------------------------------------------------------------|

       G        D      A
Me falou foi bom demais
Bm       G        D      A
Inesquecível, especial
Bm       G        D      A
Ligo e nem me atende mais
Bm       G        D      A
Chama e só caixa postal
Bm       G            D           A               Bm
Diz pra mim qual a razão, por que não quer me atender?
Bm      G         D      A               Bm
Se fez o meu coração, se apaixonar por você
      G             D           A           Bm
Não é justo nunca mais, quero ouvir a sua voz
Bm      G         D            A                    Bm
Juro que não ligo mais, se disser que não pensa em nós

 Bm    G    D      A     Bm
Alô, alô, alô, fala comigo
   G    D      A               Bm
Alô, alô, te esquecer não consigo
   G    D      A               Bm
Alô, alô, alô, não vai doer não
   G    D      A           Bm
Alô, alô, diz um alô coração

 Bm    G    D      A     Bm
Alô, alô, alô, fala comigo
   G    D      A               Bm
Alô, alô, te esquecer não consigo
   G    D      A               Bm
Alô, alô, alô, não vai doer não
   G    D      A           Bm
Alô, alô, diz um alô coração

       G     D      A      Bm       G      D        A           Bm
E|-----------------7-7----7---------------------------------------|
B|------------7-10-----10----7---7-8------------------------------|
G|------------------------------------7-9/11--7-11-9-7-6----------|
D|-7-9--9-12----------------------------------------------7--7/9--|
A|----------------------------------------------------------------|
E|----------------------------------------------------------------|

       G        D      A
Me falou foi bom demais
Bm       G        D      A
Inesquecível, especial
Bm       G        D      A
Ligo e nem me atende mais
Bm       G        D      A
Chama e só caixa postal
Bm       G            D           A               Bm
Diz pra mim qual a razão, por que não quer me atender?
Bm      G         D      A               Bm
Se fez o meu coração, se apaixonar por você
      G             D           A           Bm
Não é justo nunca mais, quero ouvir a sua voz
Bm      G         D            A                    Bm
Juro que não ligo mais, se disser que não pensa em nós

 Bm    G    D      A     Bm
Alô, alô, alô, fala comigo
   G    D      A               Bm
Alô, alô, te esquecer não consigo
   G    D      A               Bm
Alô, alô, alô, não vai doer não
   G    D      A           Bm
Alô, alô, diz um alô coração

 Bm    G    D      A     Bm
Alô, alô, alô, fala comigo
   G    D      A               Bm
Alô, alô, te esquecer não consigo
   G    D      A               Bm
Alô, alô, alô, não vai doer não
   G    D      A           Bm
Alô, alô, diz um alô coração
Acordes para:
    Colaboración y revision:

    0 comentarios

      mostrar más comentarios

      ¿Conseguiste tocar?

      8tocaron2aún no

      ¡Graba un vídeo tocando Alô y envianoslo!

      00:00 / 00:00
      outros vídeos desta música
      repetirqualidadeAutomático
      Outro vídeos desta música
        00:00 / 00:00
        OK