Cifra Club

Aprenda

Resguardum Ether

León Larregui

Tablatura: Principal (guitarra)
tono: G
[Intro]

  F                           C
E|--------------------------|-------------------------|
B|-0h1---0h1---0h1----3-1-0-|-0h1---0h1---0h1---0h1---|
G|-----2-----2-----2--------|-----0-----0-----0-----0-|
D|-3-----3-----3------0-----|-2-----2-----2-----2-----|
A|-3--------------------3-2-|-3-----------------------|
E|--------------------------|-------------------------|

F                      C
Devoción como glándula de mi fe
F                      C
Voluntad musculo de mi libertad
F            C          F                C
Queriéndome, curándome, soñando me otra vez

  F                           C
E|--------------------------|-------------------------|
B|-0h1---0h1---0h1----3-1-0-|-0h1---0h1---0h1---0h1---|
G|-----2-----2-----2--------|-----0-----0-----0-----0-|
D|-3-----3-----3------0-----|-2-----2-----2-----2-----|
A|-3--------------------3-2-|-3-----------------------|
E|--------------------------|-------------------------|

F                       C
Compasión válvula de mi oración
F                       C
Humildad, llave de mi serenidad
F            C            F              C
Mostrándome, soltándome, abriéndome otra vez

       C                                         Am
No hay nada en el mundo más bello que ese primer beso
    F                                                C
Más terso, más puro, más tierno que el brillo del momento
    C                                       Am
Rayamos las nubes con lenguas rellenas de anhelos
    F                                  C
Comimos relámpagos diáfanos bebimos truenos

F C F C
Oooooooh!

  F                           C
E|--------------------------|-------------------------|
B|-0h1---0h1---0h1----3-1-0-|-0h1---0h1---0h1---0h1---|
G|-----2-----2-----2--------|-----0-----0-----0-----0-|
D|-3-----3-----3------0-----|-2-----2-----2-----2-----|
A|-3--------------------3-2-|-3-----------------------|
E|--------------------------|-------------------------|

F            C           F                C
Queriéndome, cuidándome, soñando me otra vez

( Em  F  Em  F )

F C F C
Oooooooh!
Composição de Leon Ruben Larregui Marin
Colaboración y revision:
  • Andrés Esparza
11 reproducciones
    • ½ Tono
    • A
    • Bb
    • B
    • C
    • Db
    • D
    • Eb
    • E
    • F
    • F#
    • G
    • Ab
  • Adicionar à lista

    0 comentarios

    Ver todos os comentários

    ¿Conseguiste tocar?

    0 Tocaram 0 Ainda não

    Grave um vídeo tocando Resguardum Ether e nos envie!

    00:00 / 00:00
    outros vídeos desta música
    repetir qualidade Automático
    Outros vídeos desta música
    00:00 / 00:00
    Automático
    OK