Cifra Club

Hallelujah

Leonard Cohen

Cifrado: Cifra-e-tab (guitarra y guitarra eléctrica)
tono: Em
E|-----------------------------------------|
B|--0-3-3-3-3-5-5-5--0-3-3-3-3-5-5-5--3h5-5|
G|-0---------------------------------------|
D|-----------------------------------------|
A|-----------------------------------------|
E|-----------------------------------------|

E|-----------------------------------------|
B|-5-5-3-1-3~--0-3-3-3-3-5-5-7-8-8-8-5-8-8-|
G|------------0----------------------------|
D|-----------------------------------------|
A|-----------------------------------------|
E|-----------------------------------------|

E|-----------------------------------------|
B|-10-8-10-10-10-10-12-12-12-10-12-10-8~---|
G|-----------------------------------------|
D|-----------------------------------------|
A|-----------------------------------------|
E|-----------------------------------------|

E|-----------------------------------------|
B|--0-3-5-5-5-3-0-0-0-3-5-5-5-3-0-1-0------|
G|-0---------------------------------2-0---|
D|------------------------------------4----|
A|-----------------------------------------|
E|-----------------------------------------|

E|-/3-3-2-3-3-5-3-3-2-3-------------0------|
B|----------------------0-3-5-5-----3------|
G|----------------------------------0------|
D|----------------------------------5------|
A|------------------------------7-5--------|
E|-----------------------------------------|

      G                 Em
I've heard there was a secret chord
      G                    Em
That David played and it pleased the Lord
     C                D                  G   D
But you don't really care for music, do you?
    G                   C           D
It goes like this, the fourth, the fifth
     Em              C
The minor fall, the major lift
     D/F#             B7        Em
The baffled king composing Hallelujah

      C           Em
Hallelujah, Hallelujah
      C           G  D  G  D
Hallelujah, Hallelu--u-jah

 G                              Em
Your faith was strong, but you needed proof
 G                 Em
You saw her bathing on the roof
C                     D          G          D
  Her beauty and the moonlight overthrew you
   G               C        D
She tied you to a kitchen chair
Em                               C
  She broke your throne and she cut your hair
      D/F#                B7         Em
And from your lips she drew the Hallelujah

      C           Em
Hallelujah, Hallelujah
      C           G  D  G  D
Hallelujah, Hallelu--u-jah

[Solo] G  Em  G  Em  C  D  G  D
       G  C  D  Em  C  D/F#  B7  Em
Composición de Leonard Cohen
Colaboración y revisión:
  • william eduardo
103 vistas
    • ½ Tono
    • Am
    • Bbm
    • Bm
    • Cm
    • C#m
    • Dm
    • Ebm
    • Em
    • Fm
    • F#m
    • Gm
    • G#m
  • Agregar a la lista

    0 comentarios

    Ver todos los comentarios
    00:00 / 00:00
    Outros vídeos desta música
    Repetir Calidad Automático
    Outros vídeos desta música
    00:00 / 00:00
    Automático
    OK