Cifra Club

Lady Midnight

Leonard Cohen

Tab de bajo: Principal
Intro:

g-|----------------|----------------||
d-|----------------|----------------||
a-|-----3-3---3-3--|-3-3---3-3-----3||
E-|-0h3------------|-----------0h3--||

Verse 1:

g-|----------------|----------------||
d-|----------------|----------------||
a-|------5---------|----------3---3-||
E-|--3-------3---3-|--1---1---------||

I came by my-self to a very crowded place;

g-|----------------|----------------||
d-|----------------|----------------||
a-|------5---------|----------3-----||
E-|0-3-------3---3-|--1---1-------3-||

I was looking for someone who had lines in her face.

g-|----------------|----------------||
d-|----------------|--3-------3-----||
a-|--3-------3-----|3-----3-------3-||
E-|------3-----0-3-|----------------||

I found her there   but she was past all con-cern;

g-|----------------|----------------||
d-|----------3---3-|----------------||
a-|--3---3---------|--5-------5-----||
E-|----------------|------5-------5-||

I asked her to hold me, said, "Lady, un-fold me,"

g-|----------------||
d-|----------3---3-||
a-|--3---3---------||
E-|----------------||

but she scorned me and she told me

g-|----------------|----------------||
d-|----------------|----------------||
a-|------5---------|--3-------3-----||
E-|--3-------3---3-|------3-------3-||

I was dead and I could never re-turn.

Verse 2:

Well, I argued all night like so many have before,
saying, "Whatever you give me, I seem to need so much more."
Then she pointed at me where I kneeled on her floor,
she said, "Don't try to use me or slyly refuse me,
just win me or lose me,
it is this that the darkness is for."
Verse 3:

the stars eat your body and the wind makes you cold."
"If we cry now," she said, "it will just be ignored."
So I walked through the morning, sweet early morning,
I could hear my lady calling,
"You've won me, you've won me, my lord,


g-|----------------|----------------||
d-|----------------|----------------||	 
a-|------5---------|--3-------3-----||
E-|--3-------3---3-|------3-------3-|| x4

  you've won me, you've won me, my lord,
  yes, you've won me, you've won me, my lord,
  ah, you've won me, you've won me, my lord,
  ah, you've won me, you've won me, my lord."

Tabbed by PB.
Compositor não encontrado.
122 vistas

0 comentarios

Ver todos los comentarios

¿Lograste tocar?

0 Tocaron 0 Aún no

¡Graba un video tocando Lady Midnight y envíanoslo!

00:00 / 00:00
Outros vídeos desta música
Repetir Calidad Automático
Outros vídeos desta música
00:00 / 00:00
Automático
OK