Cifra Club

Comadre Compadre

Leonardo

Cifrado: Principal (guitarra y guitarra eléctrica)
tono: D
[Intro] D  A  Bm  A  G  A  D

E|---------------------------------------------------------------|
B|-----3-3--2-------2--------------4---4---2--------2--2-2-0-0---|
G|2-2---2-2---2--2-2--2-2-3-4--4-4---4---4---2--2-2------------4-|
D|---------------------------------------------------------------|
A|---------------------------------------------------------------|
E|---------------------------------------------------------------|

E|-----------------------------------------------------------2-3-|
B|----3-3--2-------2--------------4---4---2--------2--2-2-4------|
G|2-2--2-2---2--2-2--2-2-3-4--4-4---4---4---2--2-2---------------|
D|---------------------------------------------------------------|
A|---------------------------------------------------------------|
E|---------------------------------------------------------------|

              G
Veste a calça saint-tropez 
               D
Que deixa o umbiguinho de fora
            A
Entra na roda e rebola
         Bm
Rebolando sem parar
  G
É gera-gera
       D
Geração coca-cola
          A
Molha a calça toda hora
           D
De tanto se esfregar

          G
Que saia de corpo baixo
            D
De barriguinha de fora
            A
Entra na roda e rebola
         Bm
Rebolando sem parar
  G
É gera-gera
    D
Geração anos 60
           A
Que quase se arrebenta 
            D
De tanto se esfregar

     G            A
Então requebra, esfrega, requebra
        Bm
Esfrega no cumpade
      G           A
Que ele levanta e acende, acende
        Bm
O fogo da cumade
     G            A
Então requebra, esfrega, requebra
        Bm
Esfrega no cumpade
      G           A
Que ele levanta e acende, acende
        D
O fogo da cumade

       G              A
E vai de frente requebrando, esfregando
          Bm  A
Rebolando até o chão
       G            A
Vai de bundinha remexendo a cinturinha 
            Bm   A
Sem deixar cair no chão
       G              A
E vai de frente requebrando, esfregando
          Bm  A
Rebolando até o chão
       Bm            G
Vai de bundinha remexendo a cinturinha 
    A       D
Sem deixar cair no chão
00:00 / 00:00
Otros videos de esta canción
Repetir
Otros videos de esta canción
Compositor no encontrado.
Colaboración y revisión:
  • Jacarezinho Gyn
  • Geraldo Peregrino
  • Alfredo Maria
180 vistas
    • ½ Tono
    • A
    • Bb
    • B
    • C
    • Db
    • D
    • Eb
    • E
    • F
    • F#
    • G
    • Ab
  • Agregar a la lista

    0 comentarios

    Ver todos los comentarios
    00:00 / 00:00
    OK