Cifra Club

Idas e Voltas

Leonardo

Cifrado: Principal (guitarra y guitarra eléctrica)
tono: G
E|--7---7--7h10-8-7h8p7--7-8-7-8-9-----9-9h12-10-9h10p9---|
B|----8------------------------------10-------------------|
G|---7------------------------------9---------------------|
D|--------------------------------------------------------|
A|--------------------------------------------------------|
E|--------------------------------------------------------|

E|--9-10-9-10-12--10-8-8--------------------------7----------------------|
B|-------------------------8-10/12-10-10-8-7-8------10-8-7-----------7---|
G|-----------------------------------------------------------9-7--7-9----|
D|--------------------------------------------------------------10-------|
A|-----------------------------------------------------------------------|
E|-----------------------------------------------------------------------|

G                         Bm
Quando anoitece lá fora me bate a lembrança                                                                                                            
                   C
Do tempo em que éramos duas crianças                                                                                                             
       Em             Am
Pensando que o mundo era um favo de mel
C                        G
Ah, esse amor inocente era pra toda vida
                     A7
Jamais entre nós nem adeus nem partida
                   D
A nossa paixão tinha gosto de céu
G                       Bm
Parece até que foi ontem o primeiro beijo
                   C
Quando fecho os olhos ainda te vejo
        Em             Am
E sinto as batidas do seu coração
C                      G
Há quanta coisa bonita no amor tão puro
                 A7
Parece mentira que aquele futuro
        D            G   C  G   D/F#
Que a gente sonhou não passou de ilusão
Em                          Bm
Veio nos trilhos do tempo o trem do destino
                      C
E foi te levando por outros caminhos
                   G       Em
Deixando-me aqui na estação solidão
A7                      G
E nessas idas e voltas da minha saudade
               A7
Perdi o endereço da felicidade
         D        G     D
Fiquei prisioneiro da recordação

E|--7---7--7h10-8-7h8p7--7-8-7-8-9-----9-9h12-10-9h10p9---|
B|----8------------------------------10-------------------|
G|---7------------------------------9---------------------|
D|--------------------------------------------------------|
A|--------------------------------------------------------|
E|--------------------------------------------------------|

E|--9-10-9-10-12--10-8-8--------------------------7----------------------|
B|-------------------------8-10/12-10-10-8-7-8------10-8-7-----------7---|
G|-----------------------------------------------------------9-7--7-9----|
D|--------------------------------------------------------------10-------|
A|-----------------------------------------------------------------------|
E|-----------------------------------------------------------------------|

G                       Bm
Parece até que foi ontem o primeiro beijo
                   C
Quando fecho os olhos ainda te vejo
        Em             Am
E sinto as batidas do seu coração
C                      G
Há quanta coisa bonita no amor tão puro
                 A7
Parece mentira que aquele futuro
        D            G   C  G   D/F#
Que a gente sonhou não passou de ilusão
Em                          Bm
Veio nos trilhos do tempo o trem do destino
                      C
E foi te levando por outros caminhos
                   G       Em
Deixando-me aqui na estação solidão
A7                      G
E nessas idas e voltas da minha saudade
               A7
Perdi o endereço da felicidade
         D        G     D
Fiquei prisioneiro da recordação

Em                          Bm
Veio nos trilhos do tempo o trem do destino
                      C
E foi te levando por outros caminhos
                   G       Em
Deixando-me aqui na estação solidão
A7                      G
E nessas idas e voltas da minha saudade
               A7
Perdi o endereço da felicidade
         D        G     D
Fiquei prisioneiro da recordação

A7                      G
E nessas idas e voltas da minha saudade
               A7
Perdi o endereço da felicidade
         D        G     D
Fiquei prisioneiro da recordação

Composición de Paulinho Rezende / Paulo Debétio
Colaboración y revisión:
  • Vinicius Baio
  • Antonio Fernandes
  • Ronaldo Dutra
642 vistas
    • ½ Tono
    • A
    • Bb
    • B
    • C
    • Db
    • D
    • Eb
    • E
    • F
    • F#
    • G
    • Ab
  • Agregar a la lista

    0 comentarios

    Ver todos los comentarios
    00:00 / 00:00
    Outros vídeos desta música
    Repetir Calidad Automático
    Outros vídeos desta música
    00:00 / 00:00
    Automático
    OK