Cifra Club

On Fait Ce Quon Aime

Les Respectables

Tab de bajo: Principal
Selo Cifra Club: esta cifra foi revisada para atender aos critérios oficiais da nossa Equipe de Qualidade.
Album: 
Tabber: Steph
Email: *


intro guit 4X
G|-----------|
D|-----------|
A|-----------|
E|-5/7-7-----|

   B                               E
G|-----------------------------------------------------------------------|
D|-----------------------------------------------------------------------|
A|-------------------------------5-7-7-7-7-7-7-7-7-5h7-5h7-5h7-----------|
E|-7-7-7-7-7-7-7-7-5\7-7-7-7-7-7---------------------------------4-5-6-7-|


Verse:
   B                               E                        G# A A# B 
G|-----------------------------------------------------------------------|
D|-----------------------------------------------------------------------|
A|-------------------------------57-7-7-7-7-7-7-7-7-7-7-7-7--------------|
E|-7-7-7-7-7-7-7-7-7-7-7-7-7-7-7----------------------------4-5-6-7------|


On fait c'qu'on aime....

G|-----------------------------------------------------------------------|
D|------7-5---5-----55---------------------------------------------------|
A|----------7-----7------5h7---5-9-7-5-9-7-5-7---------------------------|
E|-3-3-------------------------------------------------------------------|

monté 2:34
   
G|-----------------------------------------------------------------------|
D|-----------------------------------------------------------------------|
A|-7/9/11/12/14/16/18/19-------------------------------------------------|
E|-----------------------------------------------------------------------|

    C#                              F# 
G|-----------------------------------------------------------------------|
D|*-----------------------------2-3\4-4-4-4-4-4-4-2\4-4-4-4-4-4-4-------*|
A|*-4-4-4-4-4-4-4-2\4-4-4-4-4-4-----------------------------------1-2-3-*|
E|-----------------------------------------------------------------------|

fin
G|-----------------------------------------------------------------------|
D|-----------------------------------------------------------------------|
A|-44---------------------------------------------------------------------|
E|-----------------------------------------------------------------------|

http://*
Otros videos de esta canción
    5 exhibiciones

    Afinação da cifra

    Afinador online

    Ops (: Contenido disponible solo en portugués.
    OK