Cifra Club

Johnny Quest Thinks We're Sellouts

Less Than Jake

Cifrado: Principal (guitarra y guitarra eléctrica)
Selo Cifra Club: esta cifra foi revisada para atender aos critérios oficiais da nossa Equipe de Qualidade.
tono: E
Intro/Verse:

G:---------------------------2-1----
D:---2-6-2------------2-6-2------2-1
A:-4---------3-6-3--4---------------
E:---------4------------------------

Bridge (Ya know, right before he starts singing)

G:-----------------------------------
D:-----------------------------------
A:-4-4-3--4-4-3-4-6-4-4-3-4-4-3-4-6-4
E:-----------------------------------

Uh...more of the bridge...easy, but may not be all that perfect

G:--------
D:--------
A:-4-4----
E:-----4-4

Chorus:

G:-----------------------------------------------
D:----------------------------4-3-4-3---6--------
A:-1-1-------4-4-4--------1-1---------4---4---6-- 
E:-----2-2-2-------4-4-4--------------------4---4

Interlude:
There's 3 Different Riffs for this, none of which are horribly hard to play...listen to 
the CD and hear their order.

Riff 1:
G:-----------------------------
D:------------1-2-2-1-1--------
A:------1-2-2-----------2-2-1-1
E:--2-2------------------------

Riff 2:
G:------------------------------
D:-------------1-2-1-2-1-2-1----
A:------1-2-2----------------2-1
E:-2-2--------------------------

Riff 3:
G:---------------------------
D:------------4-6-4-2-1-1----
A:------1-2-2-------------2-1
E:-2-2-----------------------

Fade Out (Oi, HARD):

G:----------------------------------------------------------                                            
D:-----------------------------------------------------1----
A:-1-1-1-1-1-4-3-4-3---4---4-3---1-1-1-1-1-4-3-4-3-4-----3-4
E:-------------------4---4-----4---------------------4------

G:----------------------------------
D:----------------------------------
A:-1-1-4-4-4-4-4-4-6-6-6-8-8-4-8-8-6
E:----------------------------------

There ya go, all the parts you need to play it...i hope this helps anyone who wanted to know the WHOLE song and not just bits...
Otros videos de esta canción
    60 exhibiciones
      • ½ Tono
      • A
      • Bb
      • B
      • C
      • Db
      • D
      • Eb
      • E
      • F
      • F#
      • G
      • Ab
    • Agregar a la lista

    Afinação da cifra

    Afinador online

      Ops (: Contenido disponible solo en portugués.
      OK