Cifra Club

Before You Go

Lewis Capaldi

Cifrado: Principal (guitarra y guitarra eléctrica)
tono: Eb (con acordes en la forma de C) Capotraste en 3ª casa
[Dedilhado - Intro]

   C
E|-----------------------------|
B|---1---1---1---1---1---1---1-|
G|-----------------------------|
D|-----------------------------|
A|-3---3---3---3---3---3---3---|
E|-----------------------------|

[Primeira Parte]

[Dedilhado - Primeira Parte]

Parte 1 de 4
   C                                               
E|------------------------------------------------|
B|---1---1---1---1---1---1---1---1---1---1---1---1|
G|------------------------------------------------|
D|------------------------------------------------|
A|-3---3---3---3---3---3---3---3---3---3---3---3--|
E|------------------------------------------------|

Parte 2 de 4
   Am
E|------------------------------------------------|
B|---1---1---1---1---1---1---1---1---1---1---1---1|
G|------------------------------------------------|
D|------------------------------------------------|
A|-0---0---0---0---0---0---0---0---0---0---0---0--|
E|------------------------------------------------|

Parte 3 de 4
   F
E|------------------------------------------------|
B|---1---1---1---1---1---1---1---1---1---1---1---1|
G|------------------------------------------------|
D|------------------------------------------------|
A|------------------------------------------------|
E|-1---1---1---1---1---1---1---1---1---1---1---1--|

Parte 4 de 4
   G11                     G 
E|------------------------------------------------|
B|---1---1---1---1---1---1---0---0---0---0---0---0|
G|------------------------------------------------|
D|------------------------------------------------|
A|------------------------------------------------|
E|-3---3---3---3---3---3---3---3---3---3---3---3--|

C
  I fell by the wayside like everyone else
Am
   I hate you, I hate you

I hate you but I was just kidding myself
F                                  G11
  Our every moment, I start to replace

'Cause now that they're gone, all 
   G
I hear are the words that I needed to say

[Pré-Refrão]

C
  When you hurt under the surface
Am                              F
   Like troubled water running cold
                              G11   G
Well, time can heal but this won't

[Refrão]

[Dedilhado - Refrão]

Parte 1 de 9
   C                                               
E|-------0-----------0-----------0-----------0----|
B|---1-------1---1-------1---1-------1---1-------1|
G|------------------------------------------------|
D|------------------------------------------------|
A|-3---3---3---3---3---3---3---3---3---3---3---3--|
E|------------------------------------------------|

Parte 2 de 9
   G11                    
E|-------0-----------0-----------0------------0---|
B|---1-------1---1-------1---1-------1---1-------1|
G|------------------------------------------------|
D|------------------------------------------------|
A|------------------------------------------------|
E|-3---3---3---3---3---3---3---3---3---3---3---3--|

Parte 3 de 9
   C                                               
E|-------0-----------0-----------0-----------0----|
B|---1-------1---1-------1---1-------1---1-------1|
G|------------------------------------------------|
D|------------------------------------------------|
A|-0---0---0---0---0---0---0---0---0---0---0---0--|
E|------------------------------------------------|

Parte 4 de 9
   F7M
E|-------0-----------0----------------------------|
B|---1-------1---1-------1---3---3---3---3---3---3|
G|------------------------------------------------|
D|------------------------------------------------|
A|------------------------------------------------|
E|-1---1---1---1---1---1---1---1---1---1---1---1--|

Parte 5 de 9
   C                                               
E|-------0-----------0-----------0-----------0----|
B|---1-------1---1-------1---1-------1---1-------1|
G|------------------------------------------------|
D|------------------------------------------------|
A|-3---3---3---3---3---3---3---3---3---3---3---3--|
E|------------------------------------------------|

Parte 6 de 9
   G11                    
E|-------0-----------0-----------0------------0---|
B|---1-------1---1-------1---1-------1---1-------1|
G|------------------------------------------------|
D|------------------------------------------------|
A|------------------------------------------------|
E|-3---3---3---3---3---3---3---3---3---3---3---3--|

Parte 7 de 9
   C                                               
E|-------0-----------0-----------0-----------0----|
B|---1-------1---1-------1---1-------1---1-------1|
G|------------------------------------------------|
D|------------------------------------------------|
A|-0---0---0---0---0---0---0---0---0---0---0---0--|
E|------------------------------------------------|

Parte 8 de 9
   F7M
E|-------0-----------0----------------------------|
B|---1-------1---1-------1---3---3---3---3---3---3|
G|------------------------------------------------|
D|------------------------------------------------|
A|------------------------------------------------|
E|-1---1---1---1---1---1---1---1---1---1---1---1--|

Parte 9 de 9 
   G
E|--------------------------------------------------|
B|-------------3-----------------------3------------|
G|-----0---------------0-------0---------------0----|
D|--------------------------------------------------|
A|--------------------------------------------------|
E|-3-------3-------3-------3-------3-------3-------3|

 C              G11
So, before you go
                Am
Was there something I could've said

To make your heart beat better?
   F7M
If only I'd've known 

You had a storm to weather
 C              G11
So, before you go
                Am
Was there something I could've said

To make it all stop hurting?
    F7M
It kills me how your mind can make 

You feel so worthless
 G              
So, before you go

[Segunda Parte]

C
  Was never the right time

Whenever you called
Am
   Went little by little by little until 

There was nothing at all
F                                     G
  Our every moment, I start to replay it
                           
But all I can think about is seeing 

That look on your face

[Pré-Refrão]

C
  When you hurt under the surface
Am                              F
   Like troubled water running cold
                              G    
Well, time can heal but this won't

[Refrão]

 C              G
So, before you go
                Am
Was there something I could've said

To make your heart beat better?
   F
If only I'd've known

You had a storm to weather
 C              G
So, before you go
                Am
Was there something I could've said

To make it all stop hurting?
    F
It kills me how your mind can make 

You feel so worthless
 G              
So, before you go

[Ponte]

Am             F            C
   Would we be better off by now
             G                 Am
If I'd have let my walls come down?
           F                 G
Maybe; I guess we'll never know
                G              
You know, you know

[Refrão]

C             G
  Before you go
                Am
Was there something I could've said

To make your heart beat better?
   F
If only I'd'Have known

You had a storm to weather
 C              G
So, before you go
                Am
Was there something I could've said

To make it all stop hurting?
    F
It kills me how your mind can make 

You feel so worthless

[Dedilhado - Final]

  G
E|--------------------------------------------------|
B|-------------3-----------------------3------------|
G|-----0---------------0-------0---------------0----|
D|--------------------------------------------------|
A|--------------------------------------------------|
E|-3-------3-------3-------3-------3-------3-------3|

 G               C
So, before you go
00:00 / 00:00
Otros videos de esta canción
Repetir
Otros videos de esta canción
Composición de Lewis Capaldi
Colaboración y revisión:
  • Lucas Kappaun
  • Guilherme
  • Arthur Paiva
77.162 vistas
    • ½ Tono
    • A
    • Bb
    • B
    • C
    • Db
    • D
    • Eb
    • E
    • F
    • F#
    • G
    • Ab
  • Agregar a la lista

    0 comentarios

    Ver todos los comentarios
    00:00 / 00:00
    OK