Cifra Club

Rises The Moon

Liana Flores

Chords: Principal (acoustic and electric guitars)
tone: Bbm
[Intro] A#m7  A#m6  A#m7  A#m6  

[Tab - Intro]

E|--------------------------------|
B|-----------------------4--6-----|
G|--5-----------3--5--6--------5--|
D|-----3--5--6--------------------|
A|--------------------------------|
E|--------------------------------|
A#m7                                    A#m6
Days seem sometimes as if they'll never end
A#m7                  C#7
Sun digs its heels to taunt you
F#7M
But after sunlit days
                    F#dim
One thing stays the same

A#m7           A#m6
Rises the moon

A#m7                         A#m6                   
Days fade into a watercolour blur
A#m7              C#7
Memories swim and haunt you
F#7M
But look into the lake
                F#dim
Shimmering like smoke
C#7M        C#7M(5+)
Rises the moon
C#7M         
Oh-oh
C#7              F#7M
Close your weary eyes
F#dim
I promise you that soon the autumn comes
   C#7M                
To darken
C#7           F#7M
Fading summer skies
F#dim             A#m7    A#m6
Breathe, breathe, breathe

(  A#m7  A#m6  )

[Tab - Solo]

E|-------------------------------|
B|-----------------------4--6----|
G|--5-----------3--5--6-------5--|
D|-----3--5--6-------------------|
A|-------------------------------|
E|-------------------------------|

A#m7                                   A#m6
Days pull you down just like a sinking ship
A#m7                C#7
Floating is getting harder
F#7M                                      F#dim
But tread the water, child, and know that meanwhile
A#m7          A#m6
Rises the moon
A#m7                             A#m6
Days pull you up just like a daffodil
A#m7              C#7
Uprooted from its garden
                F#7M                         F#dim
They'll tell you what you owe, but know even so

C#7M        C#7M(5+)
Rises the moon

C#7M              
You'll be
C#7        F#7M
Visited by sleep
F#dim
I promise you that soon the autumn comes
C#7M                      
To steal
C#7                 F#7M
Away each dream you keep
F#dim             A#m7    A#m6
Breathe, breathe, breathe

( A#m5+ ) 

[Tab - Final]

E|-----8----------|
B|----------------|
G|--6-------------|
D|----------------|
A|----------------|
E|----------------|
00:00 / 00:00
Other videos of this song
Repeat
Other videos of this song
Composed by Liana Flores
Collaboration and Review:
  • bupysz ♪
7.289 views
  • Simplify chords
    • ½ Tone
    • Am
    • Bbm
    • Bm
    • Cm
    • C#m
    • Dm
    • Ebm
    • Em
    • Fm
    • F#m
    • Gm
    • G#m
  • Add to list
    00:00 / 00:00
    OK