Cifra Club

Tra Palco E Realta

Luciano Ligabue

Cifrado: Principal (guitarra y guitarra eléctrica)
Selo Cifra Club: esta cifra foi revisada para atender aos critérios oficiais da nossa Equipe de Qualidade.
tono: G

Album: Su e giu da un palco
Transcribed by: Dela
Email: *

-||----------------15-15-------------------15-15-------------------14-14------
-||----------17-17-------17-17-------17-17-------17-17-------17-17------------
-||----14-14-------------------14-14-------------------14-14------------------
-||---------------------------------------------------------------------------
-||---------------------------------------------------------------------------
-||---------------------------------------------------------------------------
     Electric clean                                                           

-------------------------14-14-------------------15-15------------------------
-------17-17-------17-17-------17-17-------17-17-------17-17-------17-17------
-------------14-14-------------------14-14-------------------14-14------------
------------------------------------------------------------------------------
------------------------------------------------------------------------------
------------------------------------------------------------------------------
                                                                              

----15-15-----------------------14-14-----------------------14-14------14-----
-----------17-17---------17-17---------17-17---------17-17---------17---------
------------------14-14-----------------------14-14---------------------------
------------------------------------------------------------------------------
------------------------------------------------------------------------------
------------------------------------------------------------------------------
                                                                              

---------------15-15-------------------15-15-------------------14-14----------
---------17-17-------17-17-------17-17-------17-17-------17-17-------17-17----
---14-14-------------------14-14-------------------14-14----------------------
------------------------------------------------------------------------------
------------------------------------------------------------------------------
------------------------------------------------------------------------------
                                                                              

---------------14-14----14--|--3----------------------------------------------
---------17-17-------17-----|--3----3---1p0-----------3---1p0-----------------
---14-14--------------------|--0-------------2p0---------------2/4----4-------
----------------------------|--0------------------0---------------------------
----------------------------|--2----------------------------------------------
----------------------------|--3----------------------------------------------
                               Light distortion                               

-----------------3-----3--------------------------3-----------------------3---
---3-1p0--------------------0h1p0--3--1p0-------3----3--------------------3---
---------2p0--/4---4-5---5----------------2p0----------0-0----------0-----0---
---------------------------------------------------------------0h2--------0---
----------------------------------------------2-------------3-----------------
------------------------------------------------------------------------------
                                                                              

------0--------------------------------------------3-------3----------3-------
---3-----3---3-----3---1p0--------3---1p0--------------------------3-----3----
-----------0----------------2/4------------2p0--4-----4--5----5------------0--
----------------0-------------------------------------------------------------
-----------------------------------------------------------------0------------
------------------------------------------------------------------------------
                                                                              

--------------3-----------------------||--------------------------------------
---3-------3-----3---3----------------||--------------------------------------
-------------------0---------------0--||--------------------------------------
-----------------------------0h2------||--------------------------------------
------2------------------3------------||--------------------------------------
--------------------------------------||--------------------------------------
Otros videos de esta canción
    29 exhibiciones
      • ½ Tono
      • A
      • Bb
      • B
      • C
      • Db
      • D
      • Eb
      • E
      • F
      • F#
      • G
      • Ab
    • Agregar a la lista

    Afinação da cifra

    Afinador online

      Ops (: Contenido disponible solo en portugués.
      OK