Cifra Club

Am I Dreaming (Feat. Miley Cyrus)

Lil Nas X

Cifrado: Principal (guitarra y guitarra eléctrica)
tono: Gm
[Tab - Intro]

E|------------------------------------|
B|------------------------------------|
G|-2-3-2-0----------------------------|
D|-0-------4--------------------------|
A|---------5--5-----------------------|
E|-3----------------------------------|

[Tab - Primeira Parte]

E|------------------------------------|
B|-3---3---3---3---3---3---3---3------|
G|---3---3---3---3---3---3---3---3----|
D|-5---5---5---5---4---4---4---4------|
A|------------------------------------|
E|------------------------------------|

E|------------------------------------|
B|-3---3---3---3---3---3---3----------|
G|---3---3---3---3---3---3---3--------|
D|-3---3---3---3---2---2---2---2/5-2--|
A|------------------------------------|
E|------------------------------------|

E|------------------------------------|
B|-----3------------------------------|
G|---3-3--2-3-2-3-2-0-----------------|
D|-1------1-1-1-1-1-------------------|
A|------------------------------------|
E|------------------------------------|

Gm        D
    Every song
Bb    Gm                            C
Every dream filled with hell from beyond
       Eb
As i'm sinking

I relive the story

Gm        D
    Every try
Bb    Gm                      C
Every breakthrough, and every cry
       Eb
As i'm sinking

I relive the story

[Refrão]

Bb        D7           Eb
    Oh-oh-oh, never forget me
    [Riff 1] Bb
And everything i've done
Bb        D7           Eb
    Oh-oh-oh, never forget me
    [Riff 1] Bb
Like i'm your favorite song

[Tab - Riff 1]

E|------------------------------------|
B|-8-8/10-8-6-------------------------|
G|------------------------------------|
D|------------------------------------|
A|------------------------------------|
E|------------------------------------|

           D7
I'm fading, replaying
Eb                             (Riff 1)  Bb
 These thoughts i thought while sinking down
      D7           Eb
Oh-oh-oh, never forget me
Ebm
And evеrything i've done

Gm              D
   Tears running dry
Bb          Gm
Shattеred inside, but i still gotta smile
        Eb
As i'm sinking

I relive the story

Gm               D
   Glitter comes off
Bb           Gm                   C
Battered and blue, but i gotta go on
       Eb
As i'm singing

I rewrite my story

[Refrão]

Bb        D7           Eb
    Oh-oh-oh, never forget me
    [Riff 1] Bb
And everything i've done
Bb        D7           Eb
    Oh-oh-oh, never forget me
     [Riff 1] Bb
Like i'm your favorite song

I'm fading, replaying
Eb                             (Riff 1) Bb
 These thoughts i thought while sinking down
      D7           Eb
Oh-oh-oh, never forget me
Ebm
And evеrything i've done
00:00 / 00:00
Otros videos de esta canción
Repetir
Otros videos de esta canción
Composición de 18YOMAN / David Biral / Denzel Baptiste / Lil Nas X / Miley Cyrus / Omer Fedi / William K. Ward
Colaboración y revisión:
  • Murilo Rodelli
  • Samuel Hernane
415 exhibiciones
    • ½ Tono
    • Am
    • Bbm
    • Bm
    • Cm
    • C#m
    • Dm
    • Ebm
    • Em
    • Fm
    • F#m
    • Gm
    • G#m
  • Agregar a la lista
    00:00 / 00:00
    OK