Cifra Club

Sun Goes Down

Lil Nas X

Cifrado: Principal (guitarra y guitarra eléctrica)
tono: A (con acordes en la forma de D) Capotraste en 7ª casa
[Intro] D  Bm  F#m7  G  F#m7  G

[Tab - Ritmo]

Parte 1 de 3
   D                   Bm
E|-2--2--0-2-0-2--2-2--2--2--0-2-0-2--2-2---|
B|-3--3--3-3-3-3--3-3--3--3--3-3-3-3--3-3---|
G|-2--2--2-2-2-2--2-2--2--2--2-2-2-2--2-2---|
D|-0--0--0-0-0-0--0-0--x--x--x-x-x-x--x-x---|
A|---------------------2--2--2-2-2-2--2-2---|
E|------------------------------------------|
   ↓  ↓  ↑ ↓ ↑ ↓  ↑ ↓  ↓  ↓  ↑ ↓ ↑ ↓  ↑ ↓    

Parte 2 de 3
   F#m7   G
E|---2--------------------------------------|
B|-5---5--3-3-3--3--------------------------|
G|-2------0-0-0--0--------------------------|
D|-2------0-0-0--0--------------------------|
A|-4------2-2-2--2--------------------------|
E|-2------3-3-3--3--------------------------|
   ↓      ↓ ↑ ↓  ↓ 

Parte 3 de 3
   F#m7   G
E|---2--------------------------------------|
B|-5---5--3-3-3--3--------------------------|
G|-2------0-0-0--0--------------------------|
D|-2------0-0-0--0--------------------------|
A|-4------2-2-2--2--------------------------|
E|-2------3-3-3--3--------------------------|
   ↓      ↓ ↑ ↓  ↓ 


[Refrão] 

D
I wanna run away
             Bm
Don't wanna lie, I don't want a life
 F#m7      G      F#m7          G
Send me a gun and I'll see the Sun

D
I'd rather run away
             Bm
Don't wanna lie, I don't want a life
 F#m7      G      F#m7          G
Send me a gun and I'll see the Sun

     D
You need an instant ease
Bm 
   From the life where you got plenty
          F#m7           G
Of every hurt and heartbreak
                 F#m7        G
You just take it all to the face

    D
I know that you want to cry
Bm
   But it's much more to life than dyin'
      F#m7         G 
Over your past mistakes
                      F#m7         G
And people who threw dirt on your name

[Primeira Parte] 

D
  Since ten, I've been feelin' lonely
Bm
   Had friends, but they was pickin' on me
F#m7                    G
     Always thinkin': why my lips so big?
    F#m7         G
Was I too dark? Can they sense my fears?


D
  These gay thoughts would always haunt me
Bm
   I prayed: God would take it from me
F#m7            G
     It's hard for you when you're fightin'
F#m7              G
     And nobody knows it when you're silent

D
I'd be by the phone
                Bm
Stanning Nicki mornin' into dawn
              F#m7          G
Only place I felt like I belonged
                    F#m7                G    
Strangers make you feel so loved, you know?

         D       
And I'm happy, by the way
                  Bm
That I made that jump, that leap of faith
                  F#m7            G
I'm happy that it all worked out for me
              F#m7         G    
I'ma make my fans so proud of me (oh)

[Refrão] 

D
I wanna run away
             Bm
Don't wanna lie, I don't want a life
 F#m7      G      F#m7          G
Send me a gun and I'll see the Sun

D
I'd rather run away
             Bm
Don't wanna lie, I don't want a life
 F#m7      G      F#m7          G
Send me a gun and I'll see the Sun

     D
You need an instant ease
Bm 
   From the life where you got plenty
          F#m7           G
Of every hurt and heartbreak
                 F#m7        G
You just take it all to the face

    D
I know that you want to cry
Bm
   But it's much more to life than dyin'
      F#m7         G 
Over your past mistakes
                      F#m7         G
And people who threw dirt on your name
D        Bm         F#m7  G    F#m7  G       
  Ha-ah, ah, ha-ah, ah,     no-ah

[Final] D  Bm  F#m7  G  F#m7  G
00:00 / 00:00
Otros videos de esta canción
Repetir
Otros videos de esta canción
Composición de David Biral / Denzel Baptiste / Montero Hill / Omer Fedi / Roy Lenzo
Colaboración y revisión:
  • Thiago Almeida
192 exhibiciones
    • ½ Tono
    • A
    • Bb
    • B
    • C
    • Db
    • D
    • Eb
    • E
    • F
    • F#
    • G
    • Ab
  • Agregar a la lista
    00:00 / 00:00
    OK