Cifra Club

Cant Be Broken

Lil Wayne

Cifrado: Principal (guitarra y guitarra eléctrica)
Selo Cifra Club: esta cifra foi revisada para atender aos critérios oficiais da nossa Equipe de Qualidade.
tono: Dm
E|--------1-----------------------0-----------0-----|
B|-----------3--------3--------------1-----------2--|
G|-----2--------3--------3-----0-----------0--------|
D|--0--------------3--------------------------------| x2
A|--------------------------3-----------0-----------|
E|--------------------------------------------------|


[Chorus Vocals]

E|-----0--1--5--0--0--------0--1--|-----0--1--5--0--0--------0--1--|
B|--3-----------------2--3--------|--3-----------------2--3--------|
G|--------------------------------|--------------------------------|
D|--------------------------------|--------------------------------|
A|--------------------------------|--------------------------------|
E|--------------------------------|--------------------------------|

E|-----6--6--6--6--5--3--0-----8--8--8--8--6--5--------------------|
B|--3-----------------------3--------------------3-----------------|
G|-----------------------------------------------------------------|
D|-----------------------------------------------------------------|
A|-----------------------------------------------------------------|
E|-----------------------------------------------------------------|
Otros videos de esta canción
    6 exhibiciones
      • ½ Tono
      • Am
      • Bbm
      • Bm
      • Cm
      • C#m
      • Dm
      • Ebm
      • Em
      • Fm
      • F#m
      • Gm
      • G#m
    • Agregar a la lista

    Afinación de cifrado

    Afinador online

      OK