Cifra Club

Prom Queen

Lil Wayne

Cifrado: Principal (guitarra y guitarra eléctrica)
Selo Cifra Club: esta cifra foi revisada para atender aos critérios oficiais da nossa Equipe de Qualidade.
tono: G
(intro / verso)
E|---------------------------------------------------------------------------|
B|---------------------------------------------------------------------------|
G|---2---2---2---2---1---1---1---1---4---4---4---4---7---7---9----9----------|
D|-----4---4---4---4---2---2---2---2---6---6---6---6---9---9---11---11-------|
A|---------------------------------------------------------------------------|
E|---------------------------------------------------------------------------|

(refrão)
E|---------------------------------------------------------------------------|
B|---------------------------------------------------------------------------|
G|---2-2-2-2-2-2-2-2--1-1-1-1-1-1-1-1--4-4-4-4-4-4-4-4--7-7-7-7--9--9--9--9--|
D|---4-4-4-4-4-4-4-4--2-2-2-2-2-2-2-2--6-6-6-6-6-6-6-6--9-9-9-9-11-11-11-11--|
A|---4-4-4-4-4-4-4-4--2-2-2-2-2-2-2-2--6-6-6-6-6-6-6-6--9-9-9-9-11-11-11-11--|
E|---------------------------------------------------------------------------|
Otros videos de esta canción
    94 exhibiciones
      • ½ Tono
      • A
      • Bb
      • B
      • C
      • Db
      • D
      • Eb
      • E
      • F
      • F#
      • G
      • Ab
    • Agregar a la lista

    Afinação da cifra

    Afinador online

      Ops (: Contenido disponible solo en portugués.
      OK