Cifra Club

Quicksand

Lillix

Tab de bajo: Principal
Album - Falling Uphill
Track - 2
Bassist - Louise Burns

Intro
G---------------------------------------|
D---------------------------------------|
A---------------------------------------|
E-0-------0-------0-------0-----0-0-0-0-|

Verse
G---------------------------|
D------------2----2-------2-|
A----------2------------2---|
E-0----0-0-----0----0-0-----|

G---2--------2----2-------2-|
D----------2------------2---|
A-0----0-0-----0----0-0-----|
E---------------------------|

G---------------------------|
D---2--------2----2-------2-|
A----------2------------2---|
E-0----0-0-----0----0-0-----|

G---2--------2----2-------2-|
D----------2------------2---|
A-0----0-0-----0----0-0-----|
E---------------------------|

Pre-Chotus
G---------------9---------------7-|
D-------------9---------------7---|
A-7-7-7-7-7-7-----5-5-5-5-5-5-----|
E---------------------------------|

G---------------5-----------------|
D-------------5-------------------|
A-3-3-3-3-3-3-----2-2-2-2-2-------|
E---------------------------3-2-0-|

G---------------9---------------7-|
D-------------9---------------7---|
A-7-7-7-7-7-7-----5-5-5-5-5-5-----|
E---------------------------------|

G---------------5-----------------|
D-------------5-------------------|
A-3-3-3-3-3-3-----2~~~~-----------|
E---------------------------------|

First Chorus
G------------------------------2-------2-------------|
D---2-------2----2-------2------------------5-----7--|
A----------------------------0-----0-0---------------|
E-0-----0-0----0-----0-0------------------3-----5----| x4

End of Chorus
G---------------------------|
D---------------------------|
A---------------------------|
E-0~~~~~~~~~~~~~~~~~~~~-----|

Funky Keyboard Interlude

Verse x1

Pre-Chorus x1

Second Chorus
G------------------------------2-------2-------------|
D---2-------2----2-------2------------------5-----7--|
A----------------------------0-----0-0---------------|
E-0-----0-0----0-----0-0------------------3-----5----| x2

G------------------------------2-------2--------------7-9--|
D---2-------2----2-------2----------------5-5-5-5-7-7------|
A----------------------------0-----0-0---------------------|
E-0-----0-0----0-----0-0-----------------------------------| x1

G------------------------------2-------2------------------|
D---2-------2----2-------2----------------5~~-----7~~~----|
A----------------------------0-----0-0--------------------|
E-0-----0-0----0-----0-0----------------------------------| x1

Bridge
G---------------------------------------------------------------|
D---------------------------------------------------------------|
A-3-3-3-3-3-3-3-5-5-5-5-5-5-5-5-7-7-7-7-7-7-7-7-----------------|
E-----------------------------------------------3-3-3-3-3-3-3-3-|

G---------------------------------------------------------------|
D---------------------------------------------------------------|
A-3-3-3-3-3-3-3-5-5-5-5-5-5-5-5-7-7-7-7-7-7-7-7-7-7-7-7-7-7-7-7-|
E---------------------------------------------------------------|

G---------------------------------------------------------------|
D---------------------------------------------------------------|
A-3-3-3-3-3-3-3-5-5-5-5-5-5-5-5---------------------------------|
E-------------------------------3~~~~~~---------------------12--|

Final Chorus
G------------------------------2-------2--------------7-9-|
D---2-------2---2--2---2------------------5-5-5-5-7-7-----|
A--------------------2-------0-----0-0--------------------|
E-0-----0-0---0-------------------------------------------| x1

G------------------------------2-------2--------------7-9-|
D---2-------2---2---2-0-------------------5-5-5-5-7-7-----|
A-----------------------2----0-----0-0--------------------|
E-0-----0-0---0-----------3-------------------------------| x1

G--------------------------------2-------2--------------|
D---2-------2---/141414-141414----------------5----7----|
A------------------------------0-----0-0----------------|
E-0-----0-0---0----------------------------3----5-------| x1

G-------------------------------2-------2------------------|
D---2-------2---2--------2-----------------5-5-5-5-7-7-7-7-|
A----------------------------0-----0-0---------------------|
E-0-----0-0---0-----0-0------------------------------------| x2

G-------------------------------------2-------2------------|
D---2-------2-----141414-12--------------------------------|
A---------------------------14-10---0-----0-0---/12~~~~----|
E-0-----0-0---0--------------------------------------------| x1
00:00 / 00:00
Otros videos de esta canción
Repetir
Otros videos de esta canción
Composición de Louise Burns
8 vistas

0 comentarios

Ver todos los comentarios

¿Lograste tocar?

0 Tocaron 0 Aún no

¡Graba un video tocando Quicksand y envíanoslo!

00:00 / 00:00
OK