Cifra Club

Never Ending Story

Limahl

Cifrado: Principal (guitarra y guitarra eléctrica)
tono: C
[Intro] C  G  F6  F  Am  G

C          G
Turn around
                 F  Am  G
Look at what you seeeee....
C          G
In her face
                   F  Am  G
The mirror of your dreeeams....

D#                         D#6
Make believe I'm everywhere
G#           A#
Given in the light
D#             Cm
Written on the pages
       G#          A#           C     G
Is the answer to a never ending storyyy...
F  Am  G Intro
Ah....
C           G
Reach the stars
         F  Am  G
Fly a fantasyyyyyy....
C           G
Dream a dream
                     F  Am  G
And what you see will be....
D#                         D#6
Rhymes that keep their secrets
G#                         A#
Will unfold behind the clouds
D#                  Cm
And there upon a rainbow
       G#           A#          C    G
Is the answer to a never ending storyyyyy...
G#  Cm  A#
Aaah aah aah
D#  A#
Story...
G#  Cm  A#
Ah....

[Solo]

   G    Em     Bm             C    D      G
E|---10---10-8-7--------------------------7-7810-8-7-------|
B|-8-------------7----------7---1087-8-10------------8-----|
G|-----------------7--7-7-9---9------------------------9-7-|
D|---------------------------------------------------------|
A|---------------------------------------------------------|
E|---------------------------------------------------------|

   A#       Gm            Dm       D#    F           A#        G
E|----------10-1010-------10----------15-13---------------------|
B|-11-11-13---------13-11----10-------------13-15-16-16-151315--|
G|------------------------------10-12---------------------------|
D|--------------------------------------------------------------|
A|--------------------------------------------------------------|
E|--------------------------------------------------------------|

C          G
Show no fear
                 F  Am  G
For she may fade awaaayyy...
C          G
In your hand
                  F  Am  G
The birth of a new daaayy...


D#                         D#6
Rhymes that keep their secrets
G#                         A#
Will unfold behind the clouds
D#                  Cm
And there upon a rainbow
       G#           A#          C    G
Is the answer to a never ending storyyyyy...
G#  Cm  A#
Aaah aah aah
D#  A#
Story...
G#  Cm  A#
Ah....
 A#          C    G
Never ending story...
G#  Cm  A#
Ah....
Never ending story...
G#  Cm  A#
Ah....
A#          C    G
Never ending story...
G#  Cm  A#
Ah....
Composición de Giorgio Moroder / Keith Forsey
Colaboración y revisión:
  • Vini Santos
  • Artur Silveira
  • Vitor
1.184 vistas
    • ½ Tono
    • A
    • Bb
    • B
    • C
    • Db
    • D
    • Eb
    • E
    • F
    • F#
    • G
    • Ab
  • Agregar a la lista

    0 comentarios

    Ver todos los comentarios

    ¿Lograste tocar?

    8 Tocaron 7 Aún no

    ¡Graba un video tocando Never Ending Story y envíanoslo!

    00:00 / 00:00
    Outros vídeos desta música
    Repetir Calidad Automático
    Outros vídeos desta música
    00:00 / 00:00
    Automático
    OK