Cifra Club

The Never Ending Story

Limahl

Cifrado: Principal (guitarra y guitarra eléctrica)
tono: C
Intro: C G F6 F Am G 
 
C          G 
Turn around 
                 F Am G 
Look at what you see.... 
C          G 
In her face 
                   F Am G 
The mirror of your dreams.... 

D#                         D#6 
Make believe I'm everywhere 
G#           A#  
Given in the light 
D#             Em 
Written on the pages  
       G#          A#           C     G 
Is the answer to a never ending story... 
F Am G 
Ah.... 
 
C G F6 F Am G

  C          G 
Reach the stars 
       F Am G 
Fly a fantasy.... 
C          G 
Dream a dream
              F Am G  
And what you see will be.... 
 
D#                         D#6 
Rhymes that keep their secrets 
G#             A#  
Will unfold behind the clouds 
D#             Em 
And there upon a rainbow 
     G#          A#           C     G
Is the answer to a never ending story... 
F Am G 
Ah.... 
D# A# 
Story... 
G# Cm A# 
Ah.... 
 
SOLO: 
   
  G    Em     Bm             C    D      G         
E|---10-10-8-7----------------------------7-7-8-10-8-7------- 
B|-8-----------7----------7---10-8-7-8-10--------------8----- 
G|---------------7--7-7-9---9----------------------------9-7- 
D|----------------------------------------------------------- 
A|----------------------------------------------------------- 
E|----------------------------------------------------------- 
 
  A#       Gm            Dm       D#    F           A#        G   
E|----------10-1010-------10----------15-13--------------------- 
B|-11-11-13---------13-11----10-------------13-15-16-16-151315-- 
G|------------------------------10-12--------------------------- 
D|-------------------------------------------------------------- 
A|-------------------------------------------------------------- 
E|-------------------------------------------------------------- 
 
Show no fear 
For she may fade away... 
In your hand 
The birth of a new day... 
 
Rhymes that keep their secrets 
Will unfold behind the clouds 
And there upon a rainbow 
Is the answer to a never ending story 
Ah.... 
Never ending story... 
Ah.... 
Never ending story... 
Ah.... 
Never ending story... 
Ah.... 
(fade)
Composición de Giorgio Moroder / Klaus Doldinger
Colaboración y revisión:
  • Vitor
6.518 vistas
    • ½ Tono
    • A
    • Bb
    • B
    • C
    • Db
    • D
    • Eb
    • E
    • F
    • F#
    • G
    • Ab
  • Agregar a la lista

    0 comentarios

    Ver todos los comentarios

    ¿Lograste tocar?

    1 Tocaron 0 Aún no

    ¡Graba un video tocando The Never Ending Story y envíanoslo!

    00:00 / 00:00
    Outros vídeos desta música
    Repetir Calidad Automático
    Outros vídeos desta música
    00:00 / 00:00
    Automático
    OK