Cifra Club

Dependentes

Limão Com Mel

Cifrado: Principal (guitarra y guitarra eléctrica)
Selo Cifra Club: esta cifra foi revisada para atender aos critérios oficiais da nossa Equipe de Qualidade.
tono: E
      C#m   A              E                  B           C#m
Não dá     preciso dizer, que dependo do seu amor pra viver
C#m       A           E                  B
Amor não diga que não, eu dependo do teu amor...

intro.: C#m A E B C#m A E B C#m A E B C#m A E B


C#m                       B  Bb A
Escuta agora o que eu vou te dizer
                                 E
Eu já tentei de tudo pra te esquecer
           B
Mais não consigo
C#m                             A
Sem você no meu mundo é tudo ilusão
        E
Meu coração
        B
Corre perigo


A
Eu rolo em nossa cama
              E
Chamo por seu nome
                                  B
Essa paixão é como um fogo que consome
              C#m
O meu coração
                   B   A
Eu sou louca por você
A
O teu sorriso é luz
              E
É fonte de desejo
                                B
Uma loucura o sabor que tem teu beijo

Aumenta a sensação
A                    C#m
A vontade de te querer
A                    C#m
A vontade de te querer

tabrefrão
     C#m   A
Não dá preciso dizer
E                  B              C#m
Que dependo do teu amor pra viver
C#m       A
Amor não diga que não
E                  B
Eu dependo do teu amor

   C#m   A
Não dá preciso dizer
E                  B              C#m
Que dependo do teu amor pra viver
C#m       A
Amor não diga que não
E                  B
Eu dependo do teu amor
refrão



C#m A E B C#m A E B

A
Eu rolo em nossa cama
              E
Chamo por seu nome
                                  B
Essa paixão é como um fogo que consome
              C#m
O meu coração
                   B   A
Eu sou louca por você
A
O teu sorriso é luz
              E
É fonte de desejo
                                B
Uma loucura o sabor que tem teu beijo

Aumenta a sensação
A                    C#m
A vontade de te querer
A                    C#m
A vontade de te querer

Refrão:

     C#m   A
Não dá preciso dizer
E                  B              C#m
Que dependo do teu amor pra viver
          A
Amor não diga que não
E                  B
Eu dependo do teu amor

   C#m   A
Não dá preciso dizer
E                  B              C#m
Que dependo do teu amor pra viver
          A
Amor não diga que não
E                  B
Eu dependo do teu amor


D#m B F# C# D#m B F# C#

Refrão:


     D#m   B
Não dá preciso dizer
F#                  C#    D#m
Eu só quero amar você, você
          B
Amor não diga que não
F#                  C#
Eu dependo do teu amor

   D#m   B
Não dá preciso dizer
F#         C#    D#m
Eu preciso de você
          B
Amor não diga que não
F#                  C#
Eu dependo do teu amor

D#m   B
Não dá preciso dizer...


SOLO
E|-21~~~\-----------------------------------------------------
B|------------------------------------------------------------
G|------------------------------------------------------------
D|---------------------\7-7----\9-9----\6---------------------
A|-------9-10-11-11----\7-7----\9-9----\6---------------------
E|--------7-8--9--9----\5-5----\7-7----\4---------------------

E|------------------------------------------------------------
B|------------------------------------------------------------
G|--------\13-\13~--11--------12\14--12\14~~------------------
D|---------------------14-14----------------------------------
A|------------------------------------------------------------
E|------------------------------------------------------------

E|------------------------------------------------------------
B|------------------------------------------------------------
G|--------\13-\13~--11--------13-11~~-------------------------
D|---------------------14-14----------------------------------
A|------------------------------------------------------------
E|------------------------------------------------------------

E|------------------------------------------------------------
B|------------------------------------------------------------
G|--------\13-\13~--11--------12\14--12\14~~------------------
D|---------------------14-14----------------------------------
A|------------------------------------------------------------
E|------------------------------------------------------------

E|------------------------------------------------------------
B|------------------------------------------------------------
G|--------\13-\13~--11----11--13-13-13--13p11-----------------
D|---------------------14---------------------14-11~~---------
A|------------------------------------------------------------
E|------------------------------------------------------------

E|------------------------------------------------------------
B|------------------------------------------------------------
G|--------\13-\13~--11--------12\14--12\14~~------------------
D|---------------------14-14----------------------------------
A|------------------------------------------------------------
E|------------------------------------------------------------

E|------------------------------------------------------------
B|------------------------------------------------------------
G|--------\13-\13~--11--------13-11~~-------------------------
D|---------------------14-14----------------------------------
A|------------------------------------------------------------
E|------------------------------------------------------------

E|------------------------------------------------------------
B|------------------------------------------------------------
G|--------\13-\13~--11--------12\14--12\14~~------------------
D|---------------------14-14----------------------------------
A|------------------------------------------------------------
E|------------------------------------------------------------

E|------------------------------------------------------------
B|---------------------------12------------12-----------------
G|--------\13-\13~--11----13----13-11~--13----13-11~-\--------
D|---------------------14-------------------------------------
A|------------------------------------------------------------
E|------------------------------------------------------------

E|---------------------------------21~~~\---------------------
B|------------------------------------------------------------
G|--------14-13-11--------------------------------------------
D|-----------------13-10--------------------------------------
A|-----------------------11~~~-\------------------------------
E|------------------------------------------------------------

E|------------------------------------------------------------
B|------------------------------------------------------------
G|------------------------------------------------------------
D|------------------------------------------------------------
A|-------11--9--7---------------------------------------------
E|--------9--7--5---------------------------------------------
Otros videos de esta canción
    2.534 exhibiciones
      • ½ Tono
      • A
      • Bb
      • B
      • C
      • Db
      • D
      • Eb
      • E
      • F
      • F#
      • G
      • Ab
    • Agregar a la lista

    Afinación de cifrado

    Afinador online

      OK