Cifra Club

Não Existe Nada Entre Nós

Limão Com Mel

Cifrado: Principal (guitarra y guitarra eléctrica)
Selo Cifra Club: esta cifra foi revisada para atender aos critérios oficiais da nossa Equipe de Qualidade.
tono: Bb
Intro: Gm  D#  Gm  D#  Gm  F  D

     Gm                D#
Nao existe nada entre nois
              Bb
Foi apenas aventura uma noite 
F            D
loucura e prazer

Intro : Gm D# Cm D# Bb F

E|----------------------------------------------|
B|------10-10h11----------10--11----------------|
G|--/12---------------------------10b12r10-8----|
D|---------------12-12-12-----------------------|
A|----------------------------------------------|
E|----------------------------------------------|

E|-----------------------------13---------------|
B|-----------------------13b15----15r13---------|
G|-----12----14----15---------------------------|
D|--12----12----12----12------------------------|
A|----------------------------------------------|
E|----------------------------------------------|

E|---------------------------------------------------|
B|--11----11-13-11----11--11h13-11/10----------------|
G|-----12----------12------------------12-10-10/12---|
D|---------------------------------------------------|
A|---------------------------------------------------|
E|---------------------------------------------------|

      Gm
Nao acredito que voce esta fazendo
Isso comigo
D#
Depois de tudo que rolou
Nao faz nenhum sentido
Cm                     Bb
O meu coracao esta pedino uma chance
 F                 D
Ninguem muda de repente num instante
Gm
Voce falou que existia um sentimento
D#
Sempre me ligava e eu nao tinha tempo
Cm
Eu plantei essa ilusao ainda te quero 
F                  D
Voce nao pode ta falando serio
Dm       F
Acabou entre nois dois nao da mais
Bb            A          F
Nao foi pra valer o que rolou
Cm                    F        D
Eu to querendo tanto ter voce comigo

D#       F
Acabou agora tanto faz
Bb       A               F
Tente encontrar um novo amor
          Cm
Nao da sem voce
       F# D
Eu nao consigo
D|--------------------------------|
A|--5--6-----9---10---12-----------|
E|----6--------10-----------------|

Refrão:

    Gm                   D#
Nao existe nada entre nos dois
             Bb
Foi apenas aventura uma noite de
              F    D
Loucura e de prazer
    Gm                   D#
Nao existe nada entre nos dois
            Bb
Foi apenas um momento
      F                   D
Juro nao queria te fazer sofrer (2x)

E|--/15-17-18----------17--18-----------------------|
B|------------15-15-15---------18b20r---------------|
G|--------------------------------------------------|
D|--------------------------------------------------|
A|--------------------------------------------------|
E|--------------------------------------------------|

E|--------------13----------------------10-14-10----------------------|
B|--13b15r13b15--------------------10-13--------13-10-----------------|
G|-------------------------------11------------------11---------------|
D|--------------------------10-12----------------------12-10----------|
A|----------------------9-12--------------------------------12-9------|
E|--------------------10----------------------------------------10----|

E|--------------------------------|
B|--------------------------------|
G|--------------------------------|
D|--------------------------------|
A|--5--6-----9---10---12-----------|
E|----6--------10-----------------|

Acabou entre nois dois...
Otros videos de esta canción
    846 exhibiciones
      • ½ Tono
      • A
      • Bb
      • B
      • C
      • Db
      • D
      • Eb
      • E
      • F
      • F#
      • G
      • Ab
    • Agregar a la lista

    Afinación de cifrado

    Afinador online

      OK