Cifra Club

Ponto Final

Limão Com Mel

Cifrado: Principal (guitarra y guitarra eléctrica)
Selo Cifra Club: esta cifra foi revisada para atender aos critérios oficiais da nossa Equipe de Qualidade.
tono: G
[Solo ]
                                      Arp
E|------------------------------------10---------------------------10/7--|
B|--10b12--12r10-8-10b12-10-8-8-8b10--10--10h12-10-8----8-10-12~---10/7--|
G|------------------------------------11-------------11------------------|
D|-----------------------------------------------------------------------|
A|-----------------------------------------------------------------------|
E|-----------------------------------------------------------------------|
                                 Arp
E|-------------------------------10----------------------------------------------|
B|--10b12-10-8-10b12-10-8-8-8b10-10--10h12-10-8----8-7---7-----------------------|
G|-------------------------------11-------------11-----9---9-8-9-----------------|
D|---------------------------------------------------------------7-9-10-9-7-9----|
A|----------------------------------------------------------------------------7~-|
E|-------------------------------------------------------------------------------|

Em
Ninguém vai conseguir tirar você de mim
                                 Am  
Eu posso apostar todas as minhas fichas
                      D B7   
Que nada vai me separar do grande amor
           Em
Da minha vida



Voltei pra resgatar pegar o que é meu
                              Am
Sei que vai perdoar as nossas fantasias
                         D 
Pois nosso amor é feito mar
B7                     Em
Profundo e cheio de magia
Am      Em  
Te amo, amor
Am   C     B7
Te amo é amor


[Refrão]

Em                    Am
Eu não joguei pra perder
                     D
Voltei com sede de amar
B7                     Em
Recomeçar as nossas vidas
                       Am
Escute o que eu vou dizer
                    D
Estou aqui pra te amar
        B7                 Em. B7   
Ponto final, minha querida
                              Em
(Voltei pra resgatar o que é meu

[Tab - Final]

E|--3-3-3-3--2-0---3-3-3-3-3--2-0--3--2-2--3---5--3-2--3-2-0|
B|----------------------------------------------------------|
G|----------------------------------------------------------|
D|----------------------------------------------------------|
A|----------------------------------------------------------|
E|----------------------------------------------------------|
Otros videos de esta canción
    76.070 exhibiciones
      • ½ Tono
      • A
      • Bb
      • B
      • C
      • Db
      • D
      • Eb
      • E
      • F
      • F#
      • G
      • Ab
    • Agregar a la lista

    Afinación de cifrado

    Afinador online

      OK