Cifra Club

Tentei te esquecer

Limão Com Mel

Cifrado: Principal (guitarra y guitarra eléctrica)
Selo Cifra Club: esta cifra foi revisada para atender aos critérios oficiais da nossa Equipe de Qualidade.
tono: D
[Tab - Introdução]

E|----------------------------------------------------|
B|---10--9h10p9---------------------------------------|
G|-------------9----------9----11/13-11~--------------|
D|------------------9--11-----------------------------|
A|----------------------------------------------------|
E|----------------------------------------------------|

E|----------------------------------------------------|
B|----------------9-10-10p9---------------------------|
G|-----------9-11-----------9------9----11/13-11~-----|
D|------9-11------------------9--11-------------------|
A|---11-----------------------------------------------|
E|----------------------------------------------------|

E|----------------------------------------------------|
B|----------------------------------------------------|
G|---11-11-11--9--8--9--8----------------11/13-11~----|
D|-------------------------11~------9-----------------|
A|----------------------------------------------------|
E|----------------------------------------------------|

E|----------------------------------------------------|
B|---19-19-19--17-16h17-16---------------21--19-------|
G|-------------------------18~----16------------------|
D|----------------------------------------------------|
A|----------------------------------------------------|
E|----------------------------------------------------|

E|---------------17--19--19b21--b19-------------------|
B|------21--19----------------------------------------|
G|----------------------------------------------------|
D|----------------------------------------------------|
A|----------------------------------------------------|
E|----------------------------------------------------|

    D             G        A
Ah como eu quero te encontrar novamente
          D        G       A
Estou sozinho procurando você
           D            G        A           
Ah como eu quero te abraçar loucamente
      Em              G         A
Olhar dentro dos teus olhos e dizer
            D    (G A)
Não vivo sem você

        D              G      A
O tempo passa cai a noite e o dia vem
          D               G        A
Tentei fingir mas não deu pra esconder            
         D              G           A
Ah eu sonhei nas noites vagas com o seu amor
           Em         G        A   G  A
Provei teu beijo, magoei minha dor

               D   G     A
Tentei te esquecer,  não deu
           D             G           A
Pensei que fosse mais forte que esse amor
            D   G     A
Oh minha paixão,  sou teu                          
                D            G          A
Por mais que eu queira disfarçar como estou
  A7      Bm                 G
O meu coração, se nega a aceitar
        Em                   A7           D
Passa o tempo eu não esqueço nunca de te amar, de te amar
Otros videos de esta canción
    246.678 exhibiciones
      • ½ Tono
      • A
      • Bb
      • B
      • C
      • Db
      • D
      • Eb
      • E
      • F
      • F#
      • G
      • Ab
    • Agregar a la lista

    Afinación de cifrado

    Afinador online

      OK