Cifra Club

Um Sonho de Amor

Limão Com Mel

Cifrado: Principal (guitarra y guitarra eléctrica)
Selo Cifra Club: esta cifra foi revisada para atender aos critérios oficiais da nossa Equipe de Qualidade.
tono: C
[Intro]  

[Tab - Intro]

                           C   G/B  Am
E|------------------------------------------|
B|------------------------------------------|
G|------------------------------------------|
D|-------------2---2-5-2--------------------|
A|-3---3-5-3-5---5-------5-3---2----0-------|
E|---5--------------------------------------|
 
C  G/B  Am 
  Nana-ná
      Em
Nana-ná, ná-ná-ná-na
       Am
Ná-ná-ná
       Dm
Ná-ná-ná, ná-ná
    G        Am
Ná-ná-ná-ná-ná

      Em
Nana-ná, ná-ná-ná-na
       Am
Ná-ná-ná
       Dm
Ná-ná-ná, ná-ná
    G        F  Fm
Ná-ná-ná-ná-ná

[Primeira Parte]

      C                 
Numa noite de estrelas
            G/B  Am
Saímos pra pas_sear
         G 
De mãos dadas, namorados
            F           Fm                
Com uma vontade e um desejo
        C      Fm
Soltos pelo ar

     C                    
Era tudo tão bonito
        G/B       Am
O amor só de nós dois
       Em 
Construímos nosso ninho
       F               Fm      
Sem saber que a tempestade
      C       
Chegava depois

[Refrão]

    G/B     Am          Em                 
Eu vou lembrar, nosso amor 
                      Am
Para sempre, vou lembrar
        Dm           G             Am
No meu sonho mais bonito te encontrar
      Em                      Am
Você no meu pensamento vai ficar
         Dm        G          F  Fm
Pro meu sonho de amor não acabar

[Segunda Parte]

[Tab - Frase 1]

       Fm               C
E|------------------------------------------|
B|-------------/8---6--/5~------------------|
G|---------5--------------------------------|
D|-3-5-6------------------------------------|
A|------------------------------------------|
E|------------------------------------------|

        C                        
Foi um dia tão tristonho
             G/B   Am
Quando você me deixou
        G 
Nossas lágrimas nos olhos
       F              Fm          
Nos diziam a todo tempo
        C      Fm (Frase 1)
Nada se acabou

         C                     
Mesmo assim você se foi
               G/B    Am
Me deixando aqui tão só
      Em 
Eu sozinho ainda me lembro
       F           Fm         C  
De um sonho tão bonito que se acabou

[Refrão Final]

 G/B     Am          Em                 
Vou lembrar, nosso amor 
                      Am
Para sempre, vou lembrar
        Dm           G             Am
No meu sonho mais bonito te encontrar
               Em                     
Eu disse você no 
                      Am
Meu pensamento vai ficar
         Dm        G          F  Fm
Pro meu sonho de amor não acabar

      Am 
Nana-ná
      Em
Nana-ná, ná-ná-ná-na
       Am
Ná-ná-ná
       Dm
Ná-ná-ná, ná-ná
    G        Am
Ná-ná-ná-ná-ná

      Em
Nana-ná, ná-ná-ná-na
       Am
Ná-ná-ná
       Dm
Ná-ná-ná, ná-ná
    G        F  Fm
Ná-ná-ná-ná-ná
        Am9
Nana-ná

[Tab - Final]

       Fm            Am9
E|-------------------0----------------------|
B|-------------------1----------------------|
G|--------------5----4----------------------|
D|-3-5-6--5--3-------2----------------------|
A|-------------------0----------------------|
E|------------------------------------------|
Otros videos de esta canción
    478.697 exhibiciones
    • Simplificar cifrado
      • ½ Tono
      • A
      • Bb
      • B
      • C
      • Db
      • D
      • Eb
      • E
      • F
      • F#
      • G
      • Ab
    • Agregar a la lista

    Afinación de cifrado

    Afinador online

      OK