Notificações Amigos pendentes

      Limp Bizkit

      Break Stuff

      1.206 reproducciones
      Tono: G
      Tabbed by joel guttormson P*.
        
      All the other break stuff tabs are wrong I have the real one.  
      
      * MUTE  O- OPEN
      This song should be im normal 7-string tuning(B,E,A,D,G,B,E)
      
          O--------
      
      E-----------------------------------------------------
      B-----------------------------------------------------
      G-----------------------------------------------------
      D-----------------------------------------------------
      A---2-----3-------------------------------------------
      E---2-----3-------------------------------------------
      B---0-----1-----X12-----------------------------------
      
      
      CHORUS 
                        PM------
      
      E-----------------------------------------------------
      B-----------------------------------------------------
      G-----------------------------------------------------
      D-----------------------------------------------------
      A---2--2--2-------2-2-2----2--2------2----3-----------
      E---2--2--2-------2-2-2----2--2------2----3-----------
      B---0--0--0-------0-0-0----0--0------0----1-----------
      
      
      BACK TO VERSE
      
      
      NOW IT'S THE "I FEEL LIKE SHIT" PART
      
         PM------------------
      E-----------------------------------------------------
      B-----------------------------------------------------
      G-----------------------------------------------------
      D-----------------------------------------------------
      A--2-2----2-2---2-2--2-2---2--------------------------
      E--2-2----2-2---2-2--2-2---2--------------------------
      B--0-0----0-0---0-0--0-0---0-----GO TO "GIVE ME SOMETHING TO BREAK"
      
      
      PLAY THIS OPEN .
      
      
      AND NOW YOU KNOW HOW TO PLAY BREAK STUFF THE RIGHT WAY IF YOU HAVE ANY PROBLEMS e-mail me at P* 
      
      :: Ultimate Guitar Archive :: 
      http://*

      Comentarios 1

      140 .
      • Mikael Mikael: Em 29/01/2016 07:59

        No refrão fiz assim:
        A---2-----2---X-X-X
        E---2-----2---X-X-X (3x) - E na quarta vez faz como no rif principal
        B---0-----0---X-X-X

      140 cancelar

      ¿conseguiste tocar?

      covers

      ¡Grave un vídeo tocando Break Stuff y envie para nosotros!

      Ex.: http://www.youtube.com/watch?v=0IvSvIwGdwk
      ver cover de otras canciones »
      0:00 / 0:00

      Capitulos

        1 versão de contrabajo reproducciones contribuición y correción
        4 versões de Guitar Proformatodownloadscontribuición
        play/pausefechar subir/bajar velocidad
        6ª cuerda E5ª cuerda A4ª cuerda D3ª cuerda G2ª cuerda B1ª cuerda E
          acordes
          publicidad
          cerrar
          ok