Cifra Club

Descontrolada

Lipstick

Cifrado: Principal (guitarra y guitarra eléctrica)
tono: G
Intro:

e|--------------------------------------------------------|  (x2)
B|--------------------------------------------------------|
G|---7-7-7-7--7-8-8-8-7-7-7---7-7-7-7--8-8-8-8-7-7-7------|
D|---5-5-5-5--7-8-8-8-7-7-7---5-5-5-5--6-8-8-8-7-7-7------|
A|------------5-6-6-6-5-5-5--------------6-6-6-5-5-5------|
E|--------------------------------------------------------|

Verso:(A guitarra no verso é igual a introdução)

e|--------------------------------------------------------|  
B|--------------------------------------------------------|
G|---7-7-7-7--7-8-8-8-7-7-7---7-7-7-7--8-8-8-8-7-7-7------|
D|---5-5-5-5--7-8-8-8-7-7-7---5-5-5-5--6-8-8-8-7-7-7------|
A|------------5-6-6-6-5-5-5--------------6-6-6-5-5-5------|
E|--------------------------------------------------------|

Entrando numa fria 
Sem saber pra onde vou olhar 
Dando passos inseguros 
Sem escolhas 
Sem respostas 
Tetando me encontrar 

       A#5             C5  D5 (Essa nota é tocada com pausas)
Numa estrada sempre escura 
A#5         C5         D5
Sem saber aonde vou pisar 
A#5        C5           D5
Correndo sempre muitos riscos 
      A#5           C5            D5 (Toca abafando)
Sem saber se vale a pena ao menos eu tentar 
 
Refrão:

G5      D#5          A#5
  Estou tão descontrolada 
   D5   
Preciso fugir daqui 
G5      D#5         A#5        A5
  Estou tão decontrolada controlando 

o que eu não posso sentir 
G5      D#5          A#5
  Estou tão descontrolada 
   D5
Preciso fugir daqui 
G5      D#5         A#5        A5
  Estou tão decontrolada controlandooooo 

O que eu não posso sentir 

Intro:

e|--------------------------------------------------------|  (x2)
B|--------------------------------------------------------|
G|---7-7-7-7--7-8-8-8-7-7-7---7-7-7-7--8-8-8-8-7-7-7------|
D|---5-5-5-5--7-8-8-8-7-7-7---5-5-5-5--6-8-8-8-7-7-7------|
A|------------5-6-6-6-5-5-5--------------6-6-6-5-5-5------|
E|--------------------------------------------------------|

Verso:(A guitarra no verso é igual a introdução)

e|--------------------------------------------------------|  
B|--------------------------------------------------------|
G|---7-7-7-7--7-8-8-8-7-7-7---7-7-7-7--8-8-8-8-7-7-7------|
D|---5-5-5-5--7-8-8-8-7-7-7---5-5-5-5--6-8-8-8-7-7-7------|
A|------------5-6-6-6-5-5-5--------------6-6-6-5-5-5------|
E|--------------------------------------------------------|

Passando por apuros 
Que nunca eu pensei viver 
Fugindo de quase tudo 
Sem escolhas 
Sem respostas 
Procurando entender 

       A#5            C5   D5 (Essa nota é tocada com pausas)
Numa estrada sempre escura 
A#5          C5          D5
Já não sei mais pra onde eu vou 
     A#5 C5            D5
Correndo sempre muitos riscos 
    A#5      C5        D5
Desconfiando até mesmo de quem sou 

Refrão:

G5      D#5          A#5
  Estou tão descontrolada 
   D5   
Preciso fugir daqui 
G5      D#5         A#5        A5
  Estou tão decontrolada controlando 
o que eu não posso sentir 
G5      D#5          A#5
  Estou tão descontrolada 
   D5
Preciso fugir daqui 
G5      D#5         A#5        A5
  Estou tão decontrolada controlandooooo 

O que eu não posso sentir 

Solo 1:

e|--------------------------------------------------------|  (x3)
B|--------------------------------------------------------|
G|---7--7-7-7--7-7-7--7-7-7--7-7-7--7-7-7--7--9h10-9------|
D|---5--5-5-5--5-5-5--5-5-5--5-5-5--5-5-5--5--7h8--7------|
A|--------------------------------------------------------|
E|--------------------------------------------------------|

e|--------------------------------------------------------|  
B|--------------------------------------------------------|
G|---7--7-7-7--7-7-7--7-7-7--7-7-7--7-7-7--7--9h10--------|
D|---5--5-5-5--5-5-5--5-5-5--5-5-5--5-5-5--5--7h8---------|
A|--------------------------------------------------------|
E|--------------------------------------------------------|

Solo 2:

e|-------------------------------------------|  (x3)
B|-------------------------------------------|
G|--0-0-15-0-0-19-0-0-15-0-0-19-0-0-15-0-----|
D|-------------------------------------------|
A|-------------------------------------------|
E|-------------------------------------------|

e|-----------------------------------------------------------------------------------|  
B|-----------------------------------------------------------------------------------|
G|--0-0-15-0-0-19-0-0-15-0-0-19-0-0-15-0-15(Deslizar o dedo até o começo do braço)---|
D|-----------------------------------------------------------------------------------|
A|-----------------------------------------------------------------------------------|
E|-----------------------------------------------------------------------------------|

                   A#5    D5
Estou tão descontroladaaaa
G5      D#5          A#5    A5                
  Estou tão descontroladaaaa

Refrão:

G5      D#5          A#5
  Estou tão descontrolada 
   D5   
Preciso fugir daqui 
G5      D#5         A#5    A5  G5   
  Estou tão decontroladaaaa
Composición de Carol Navarro / Dedê Soares / Mel Ravasio / Mi Oliveira / Tila Gandra
Colaboración y revisión:
  • Eric Nagano
17 vistas
    • ½ Tono
    • A
    • Bb
    • B
    • C
    • Db
    • D
    • Eb
    • E
    • F
    • F#
    • G
    • Ab
  • Agregar a la lista

    0 comentarios

    Ver todos los comentarios

    ¿Lograste tocar?

    1 Tocaron 0 Aún no

    ¡Graba un video tocando Descontrolada y envíanoslo!

    00:00 / 00:00
    Outros vídeos desta música
    Repetir Calidad Automático
    Outros vídeos desta música
    00:00 / 00:00
    Automático
    OK