Cifra Club

Do Seu Jeito

Lipstick

Cifrado: Principal (guitarra y guitarra eléctrica)
tono: D
Riff 1:
E|---------------------------------------------------------------------|
B|---------------------------------------------------------------------|
G|---------------------------------------------------------------------|
D|-4-x-x-4-x-x-4----7-x-x-7-x-x-7-----4-x-x-4-x-x-4----7-x-x-7-x-x-7---|
A|-4-x-x-4-x-x-4----7-x-x-7-x-x-7-----4-x-x-4-x-x-4----7-x-x-7-x-x-7---|
E|-2-x-x-2-x-x-2----5-x-x-5-x-x-5--0--2-x-x-2-x-x-2----5-x-x-5-x-x-5---|
(Eu tentei fazer uma letra, que você pudesse gostar)

Riff 2:
E|---------------------------------------------------------------------|
B|---------------------------------------------------------------------|
G|-9---9-----------9-9-------------------------------------------------|
D|-9---9--4-----4--9-9-5-5-5-5-5-5-5-5-5-5-5-5-5-5---------------------|
A|-7---7--4-----4--7-7-5-5-5-5-5-5-5-5-5-5-5-5-5-5---------------------|
E|--------2-----2------2-2-2-2-2-2-2-2-2-2-2-2-2-2---------------------|
(Pra que tudo tão perfeito? pra que tudo do seu jeito?)

Refrão:
E|---------------------------------------------------------------------|
B|---------------------------------------------------------------------|
G|-6-6-6-6-6-6-6-6-----------------------------------------------------|
D|-6-6-6-6-6-6-6-6--6-6-6-6-6-6-6-6--4-4-4-4-4-4-4-4--7-7-7-7--9-9-9-9-|
A|-4-4-4-4-4-4-4-4--6-6-6-6-6-6-6-6--4-4-4-4-4-4-4-4--7-7-7-7--9-9-9-9-|
E|------------------4-4-4-4-4-4-4-4--2-2-2-2-2-2-2-2--5-5-5-5--7-7-7-7-|
(Não quero mais tentar ser alguem melhor pra você)
Compositor não encontrado.
Colaboración y revisión:
  • emerson silva
18 vistas
    • ½ Tono
    • A
    • Bb
    • B
    • C
    • Db
    • D
    • Eb
    • E
    • F
    • F#
    • G
    • Ab
  • Agregar a la lista

    0 comentarios

    Ver todos los comentarios

    ¿Lograste tocar?

    0 Tocaron 0 Aún no

    ¡Graba un video tocando Do Seu Jeito y envíanoslo!

    00:00 / 00:00
    Outros vídeos desta música
    Repetir Calidad Automático
    Outros vídeos desta música
    00:00 / 00:00
    Automático
    OK