Cifra Club

Eu Sei

Lipstick

Cifrado: Principal (guitarra y guitarra eléctrica)
tono: D
(intro)

E|----------------------------------------------------------------|
B|----------------------------------------------------------------|
G|----4----4--4------4----4--4------4----4--4------4----4--4------|
D|----------------------------------------------------------------|
A|-2-2--2-2--2----0-0--0-0--0-------------------------------------|
E|-------------------------------3-3--3-3--3----2-2--2-2--2-------|


Eu não vou mais me fazer
de vítima pra você
Não quero mais tentar ser
Alguém que vá fazer você reparar
em tudo aquilo que eu não posso mais me encaixar

B5 A5 D5 E5
Eu sei, o jogo já terminou
Eu sei que isso tudo já passou
mas é difícil não sentir medo
Só não pretendo te esquecer

(intro)

Eu juro que tentei
mudar pra te fazer bem
mas nada adiantou
Você nem notou que eu só queria
ter o seu amor e não percebia
que te causava dor

B5 A5 D5 E5
Eu sei, o joga já terminou
Eu sei que isso tudo já passou
mas é difícil não sentir medo
Só não pretendo te esquecer

G5 D5 A5 G5 D5 E5
Eu demorei pra perceber
meus olhos não me deixavam ver
nada além do que eu queria
Eu demorei pra perceber
meus olhos que não me deixavam ver
nada além do que eu queria ter

B5 A5 D5 E5
Eu sei, o jogo já terminou
Eu sei que isso tudo já passou
mas é difícil não sentir medo
Só não pretendo te esquecer

E|----------------------------------------------------------------|
B|----------------------------------------------------------------|
G|----4----4--4------4----4--4------4----4--4------4----4--4------|
D|----------------------------------------------------------------|
A|-2-2--2-2--2----0-0--0-0--0-------------------------------------|
E|-------------------------------3-3--3-3--3----2-2--2-2--2-------|
Composición de Lipstick
Colaboración y revisión:
  • Miithyy
  • matthew padget
  • vitor carvalho
23 vistas
    • ½ Tono
    • A
    • Bb
    • B
    • C
    • Db
    • D
    • Eb
    • E
    • F
    • F#
    • G
    • Ab
  • Agregar a la lista

    0 comentarios

    Ver todos los comentarios

    ¿Lograste tocar?

    3 Tocaron 0 Aún no

    ¡Graba un video tocando Eu Sei y envíanoslo!

    00:00 / 00:00
    Outros vídeos desta música
    Repetir Calidad Automático
    Outros vídeos desta música
    00:00 / 00:00
    Automático
    OK