Cifra Club

Na Na Na

Lipstick

Cifrado: Principal (guitarra y guitarra eléctrica)
tono: A
A5
 Faço o que for pra ganhar o seu amor
D5            G5        B5       G5 A5 G5 A5
Nanananana... nanana... nananana        (2x)

D5                        B5
 Faltam poucas horas para eu ir
                A5
E ainda não sei o que vestir
                        (G5 F#5 E5)
Pra ter certeza de te impressionar

D5                        B5
Já pus o meu armário para o chão
                 A5
Sem encontrar qualquer solução
                       (G5 F#5 E5)
Eu queria apenas te agradar

B5       F#5              G5      D5
Olho o espelho e vejo alguém confusa
        B5      F#5     A5
Achando que uma blusa vai fazer...
Ele se apaixonar

A5
Faço o que for pra ganhar o seu amor

D5            G5         B5       G5 A5 G5 A5
Nanananana... nanana... nananana        (2x)

D5                             B5
Sei que mesmo que a cor do meu batom
                             A5
Venha a ser do mais perfeito tom
                          (G5 F#5 E)
Capaz de tirar sua respiração

D5                         B5
Não quero que isso aconteça assim
                 A5
Quero que enxergue através mim
                    (G5 F#5 E5)
Por baixo de toda essa produção

B5       F#5              G5    D5
Olho o espelho e vejo alguém confusa
        B5      F#5          A5
Achando que uma blusa vai fazer...
Ele se apaixonar

A5
Faço o que for pra ganhar o seu amor

D5            G5         B5       G5 A5 G5 A5
Nanananana... nanana... nananana        (2x)

( G5 A5 G5 A5 E5 F5 G5 D5 A5 E5 F#5  (9ª casa) G5 (10ª casa) D5 A5 B5 )

(solo teclado trascrito para guitarra)
E |-----------------------------|-------------------- (repete só essa
B |-----------------------------|--7-------7-------7- segunda parte
G |------------------7-------7--|---9h-7-9h-9h-7-9h-- várias vezes)
D |------------7--9-----9-------|--------------------
A |-7----9-10-------------------|--------------------
E |-----------------------------|--------------------

E5 A5 C#5 B5
           Hey!
E5 A5 C#5 B5
           Hey!
E5 A5 C#5 B5
           Hey!
E5 A5 C#5 B5

 A5                                  E5
 Faço o que for pra ganhar o seu amor

(lick 1) (Background no segundo verso)
                             2x                                   1x
E |-----------------------------|------------------------------------|
B |---8----7----10----8--7h8----|-------5----7----8----7--5-5h7------|
G |-7----7----7-----7--------7--|-----7----7----7----7----------7----|
D |-----------------------------|------------------------------------|
A |-----------------------------|------------------------------------|
E |-----------------------------|------------------------------------|
 "Já pus o meu armário... "             "Eu queria apenas..."

() = Repetição
\  = Slide
h  = Hammer On
Compositor não encontrado.
Colaboración y revisión:
  • Lucas Bernardi
  • Caroline R
  • William Gondim
17 vistas
    • ½ Tono
    • A
    • Bb
    • B
    • C
    • Db
    • D
    • Eb
    • E
    • F
    • F#
    • G
    • Ab
  • Agregar a la lista

    0 comentarios

    Ver todos los comentarios

    ¿Lograste tocar?

    2 Tocaron 0 Aún no

    ¡Graba un video tocando Na Na Na y envíanoslo!

    00:00 / 00:00
    Outros vídeos desta música
    Repetir Calidad Automático
    Outros vídeos desta música
    00:00 / 00:00
    Automático
    OK