Cifra Club

Nossa História

Lipstick

Cifrado: Principal (guitarra y guitarra eléctrica)
tono: D
Intro:

e|-------------------------------------------------------|
B|-------------------------------------------------------|
G|--4-4-4-4-4---7-7-7-7-7-7------------------------------|
D|--4-4-4-4-4---7-7-7-7-7-7---7-7-7-7-7---5-5-5-5-5-5----|
A|--2-2-2-2-2---5-5-5-5-5-5---7-7-7-7-7---5-5-5-5-5-5----|
E|----------------------------5-5-5-5-5---3-3-3-3-3-3----|

Verso Parte 1:

e|-----------------------------------------------------------| (x2)
B|-----------------------------------------------------------|
G|--4-4---4-4---4-4----7-7-7--9-9-9--7-7-7--9-9-9--7-7-7-----|
D|--4-4---4-4---4-4----7-7-7--9-9-9--7-7-7--9-9-9--7-7-7-----|
A|--2-2---2-2---2-2----5-5-5--7-7-7--5-5-5--7-7-7--5-5-5-----|
E|-----------------------------------------------------------|

Não aguento mais isso tudo outra vez
Pois já sei como vai acabar
E eu não quero mais
Um novo motivo pra me machucar

Verso Parte 2:

e|---------------------------------------------------------------| (x2)
B|---------------------------------------------------------------|
G|--11-11--11-11--11-11----7-7-7--9-9-9--7-7-7--9-9-9--7-7-7-----|
D|--x--x---x--x---x--x-----7-7-7--9-9-9--7-7-7--9-9-9--7-7-7-----|
A|--9--9---9--9---9--9-----5-5-5--7-7-7--5-5-5--7-7-7--5-5-5-----|
E|---------------------------------------------------------------|

Já tentei esquecer
Já tentei entender
Mas não dá
Tudo isso é forte de mais
Preciso me afastar

Refrão:

B5         D5             A5            G5
A nossa historia já teve início meio e agora está no fim

B5         D5             A5         G5
  Perdemos o controle (perdemos o controle)

B5            D5         A5
  E eu já não era mais a mesma

        G5            B5 D5 A5
E agora vou deixar voçê

G5
Seguir o que é melhor pra mim

Intro:

e|-----------------------------------------------------------| (x2)
B|-----------------------------------------------------------|
G|--4-4---4-4---4-4----7-7-7--9-9-9--7-7-7--9-9-9--7-7-7-----|
D|--4-4---4-4---4-4----7-7-7--9-9-9--7-7-7--9-9-9--7-7-7-----|
A|--2-2---2-2---2-2----5-5-5--7-7-7--5-5-5--7-7-7--5-5-5-----|
E|-----------------------------------------------------------|

Verso Parte 1:

e|-----------------------------------------------------------| (x2)
B|-----------------------------------------------------------|
G|--4-4---4-4---4-4----7-7-7--9-9-9--7-7-7--9-9-9--7-7-7-----|
D|--4-4---4-4---4-4----7-7-7--9-9-9--7-7-7--9-9-9--7-7-7-----|
A|--2-2---2-2---2-2----5-5-5--7-7-7--5-5-5--7-7-7--5-5-5-----|
E|-----------------------------------------------------------|

Não aguento mais tudo isso outra vez
Pois já sei como vai acabar
E eu não quero mais
Falsas promessas pra me enganar

Verso Parte 2:

e|---------------------------------------------------------------| (x2)
B|---------------------------------------------------------------|
G|--11-11--11-11--11-11----7-7-7--9-9-9--7-7-7--9-9-9--7-7-7-----|
D|--x--x---x--x---x--x-----7-7-7--9-9-9--7-7-7--9-9-9--7-7-7-----|
A|--9--9---9--9---9--9-----5-5-5--7-7-7--5-5-5--7-7-7--5-5-5-----|
E|---------------------------------------------------------------|

Eu só quero esquecer
Já tentei entender
Mas não dá
Tudo isso me consome demais
Preciso me afastar

Refrão:

B5         D5             A5            G5
A nossa historia já teve início meio e agora está no fim
B5         D5             A5         G5
  Perdemos o controle (perdemos o controle)
B5            D5         A5
  E eu já não era mais a mesma
        G5            B5 D5 A5
E agora vou deixar voçê
G5
Seguir o que é melhor pra mim

Solo 1:

e|-----------------------|
B|-----------------------|
G|--16-(x16)--19-(x16)---|
D|---x---------x---------|
A|--14--------17---------|
E|-----------------------|

Verso Parte 1a:

e|-----------------------------------------------------------| 
B|-----------------------------------------------------------|
G|--4-4---4-4---4-4----7-7-7-7-7-7-7-7---9-9-9-9-9-9-9-9-----|
D|--4-4---4-4---4-4----7-7-7-7-7-7-7-7---9-9-9-9-9-9-9-9-----|
A|--2-2---2-2---2-2----5-5-5-5-5-5-5-5---7-7-7-7-7-7-7-7-----|
E|-----------------------------------------------------------|       
                                    
e|-----------------------------------------------------------| 
B|-----------------------------------------------------------|
G|--4-4---4-4---4-4----7-7-7-7-7-7-7-7---5-5-5-5-5-5-5-5-----|
D|--4-4---4-4---4-4----7-7-7-7-7-7-7-7---5-5-5-5-5-5-5-5-----|     
A|--2-2---2-2---2-2----5-5-5-5-5-5-5-5---3-3-3-3-3-3-3-3-----|
E|-----------------------------------------------------------|    (x2)

'Tava' tudo indo bem mas a gente se enganava 
Tinha tudo pra dar certo                        
Mas vontades diferentes fez com que não desse em nada
Não me pergunte como estou e por qual caminho eu vou
Só estou tentando traçar uma linha

                     B5        D5 A5 G5        B5        D5 A5 G5
Pela qual voçê nunca vai passar        ( nunca vai passar)

Refrão:

B5         D5             A5            G5
A nossa historia já teve início meio e agora está no fim
B5         D5             A5         G5
  Perdemos o controle (perdemos o controle)
B5            D5         A5
  E eu já não era mais a mesma
        G5            B5 D5 A5
E agora vou deixar voçê
G5
Seguir o que é melhor pra mim

Solo 2:

e|---------------------------------------------------| (x3)
B|---------------------------------------------------|
G|---9h11-11-11-x---9h11-11-11-x--x-x-x-x-x-x--------|
D|---x-x--x--x--x---x-x--x--x--x--x-x-x-x-x-x--------|
A|---7h9--9--9--x---7h9--9--9--x--x-x-x-x-x-x--------|
E|---------------------------------------------------|

e|---------------------------------------------------------| 
B|---------------------------------------------------------|
G|---9h11-11-11-x---9h11-11-11-11-11-11--(A ultima nota----|
D|---x-x--x--x--x---x-x--x--x--x--x--x----morre no começo--|
A|---7h9--9--9--x---7h9--9--9--9--9--9-----do braço)-------|
E|---------------------------------------------------------|
Composición de Carol Navarro / Dedê Soares / Mel Ravasio / Mi Oliveira / Tila Gandra
Colaboración y revisión:
  • Eric Nagano
13 vistas
    • ½ Tono
    • A
    • Bb
    • B
    • C
    • Db
    • D
    • Eb
    • E
    • F
    • F#
    • G
    • Ab
  • Agregar a la lista

    0 comentarios

    Ver todos los comentarios

    ¿Lograste tocar?

    0 Tocaron 0 Aún no

    ¡Graba un video tocando Nossa História y envíanoslo!

    00:00 / 00:00
    Outros vídeos desta música
    Repetir Calidad Automático
    Outros vídeos desta música
    00:00 / 00:00
    Automático
    OK