Cifra Club

Nunca Mais

Lipstick

Cifrado: Principal (guitarra y guitarra eléctrica)
tono: F
Gtr.Legenda:

h - hammer-on
b - bend

Solo 1 Intro:

e|------------------------------------------------------------------------------|
B|-------------------6h8-8-6-6-------------------------6h8-8b10-6---------------|
G|-------5h7-5---5-7-----------------------5h7-5---5-7--------------------------|
D|---0-7-------7-----------------------0-7-------7------------------------------|
A|------------------------------------------------------------------------------|
E|------------------------------------------------------------------------------|

e|------------------------------------------------------------------------------|
B|-------------------6h8-8-6-6--------------------------------------------------|
G|-------5h7-5---5-7-----------------------5h7-5---5-7---7-5---5-5h7-5----------|
D|---0-7-------7-----------------------0-7-------7-----------7------------------|
A|------------------------------------------------------------------------------|
E|------------------------------------------------------------------------------|

Solo 2 Intro(Guitarra 1):

B|---8-6---8-6---6----8-6---8h10-8-6--------8-6---8-6---6----8-6---5-5h6--------|
G|-------7-----7---7------7----------7----------7-----7---7------7-------5-5h7--|

Base Solo 2(Guitarra 2):

       D5        Bb5        F5         C5
e|------------------------------------------------|  (x2)
B|------------------------------------------------|
G|--7-7-7-7----3-3-3-3---------------5-5-5-5------|
D|--7-7-7-7----3-3-3-3----3-3-3-3----5-5-5-5------|
A|--5-5-5-5----1-1-1-1----3-3-3-3----3-3-3-3------|
E|------------------------1-1-1-1-----------------|

Verso

D5        Bb5 F5    C5
Tudo isso faz te odiar
D5      Bb5     F5    C5
Não vejo a hora de chega
D5     Bb5 F5       C5
Pra rasgar tuas lembranças
Bb5       C5
Você e eu

Nunca mais!

Solo 2 Intro(Guitarra 1):

B|---8-6---8-6---6----8-6---8h10-8-6--------8-6---8-6---6----8-6---5-5h6--------|
G|-------7-----7---7------7----------7----------7-----7---7------7-------5-5h7--|

Base Solo 2(Guitarra 2):

       D5        Bb5        F5         C5
e|------------------------------------------------|  (x2)
B|------------------------------------------------|
G|--7-7-7-7----3-3-3-3---------------5-5-5-5------|
D|--7-7-7-7----3-3-3-3----3-3-3-3----5-5-5-5------|
A|--5-5-5-5----1-1-1-1----3-3-3-3----3-3-3-3------|
E|------------------------1-1-1-1-----------------|

Verso

D5       Bb5   F5
Não é de hoje
C5        D5      Bb5
Que esse sentimento
      F5        C5
Tomou conta de mim
D5      Bb5 F5     C5 
Você partiu no momento
Bb5                 C5
Em que estava tudo indo tão bem!

Refrão (x2)

D5              Bb5
Eu tentei esquecer
                F5
Tentei me esconder
                   C5
O que eu mais precisava
        D5
Era você
      Bb5          F5 C5
Agora não ligo mais
             D5
Não quero você!

Solo 1 Intro:

(Primeiro o Baixo, depois a guitarra...)

e|---------------------------------------------|
B|--------------------6h8-8b10-6---------------|
G|--------5h7-5---5-7--------------------------|
D|----0-7-------7------------------------------|
A|---------------------------------------------|
E|---------------------------------------------|

Solo 2 Intro(Guitarra 1):

B|---8-6---8-6---6----8-6---8h10-8-6--------8-6---8-6---6------5h6-6-6-6-5--------|
G|-------7-----7---7------7----------7----------7-----7---7----------------5-5h7--|

Base Solo 2(Guitarra 2):

       D5        Bb5        F5         C5
e|------------------------------------------------|  (x2)
B|------------------------------------------------|
G|--7-7-7-7----3-3-3-3---------------5-5-5-5------|
D|--7-7-7-7----3-3-3-3----3-3-3-3----5-5-5-5------|
A|--5-5-5-5----1-1-1-1----3-3-3-3----3-3-3-3------|
E|------------------------1-1-1-1-----------------|

Verso

D5             Bb5
Tudo que eu queria
F5        C5
Era ter você
    D5       Bb5
Não vou escutar
       F5         C5
Mais o meu coração
D5     Bb5       F5 C5
Vou ouvir a Razão
Bb5           C5
Não vou me iludir

Refrão

D5              Bb5
Eu tentei esquecer
                F5
Tentei me esconder
                   C5
O que eu mais precisava
        D5
Era você
      Bb5          F5 C5
Agora não ligo mais
             D5
Não quero você!

D5              Bb5
Eu tentei esquecer
                F5
Tentei me esconder
                   C5
O que eu mais precisava
        D5
Era você!

Ponte:

Solo Ponte:

e|-------------------------------------|
B|------10-------10-------10-------10--|
G|--7-7--------------------------------|
D|----------10-10-----8-8------7-7-----|
A|-------------------------------------|
E|-------------------------------------|

e|-----------------------------------------------------------|
B|------10-10-----------10---10---10-------10--10--10--------|
G|--7-7---7--7-----------------------------------------------|
D|-----------------10-10---10---10------8-8---8---8-----7----|
A|-----------------------------------------------------------|
E|-----------------------------------------------------------|

(Essa parte toca abafando as cordas...)

D5            C5
Você pode um dia

             Bb5 A5
Até querer mais

D5       C5        Bb5   A5
Eu e você... Nunca mais!

Refrão (x2)

D5              Bb5
Eu tentei esquecer
                F5
Tentei me esconder
                   C5
O que eu mais precisava
        D5
Era você
      Bb5          F5 C5
Agora não ligo mais
             D5
Não quero você!
Composición de Carol Navarro / Dedê Soares / Mel Ravasio / Mi Oliveira / Tila Gandra
Colaboración y revisión:
  • Eric Nagano
19 vistas
    • ½ Tono
    • A
    • Bb
    • B
    • C
    • Db
    • D
    • Eb
    • E
    • F
    • F#
    • G
    • Ab
  • Agregar a la lista

    0 comentarios

    Ver todos los comentarios

    ¿Lograste tocar?

    1 Tocaron 0 Aún no

    ¡Graba un video tocando Nunca Mais y envíanoslo!

    00:00 / 00:00
    Outros vídeos desta música
    Repetir Calidad Automático
    Outros vídeos desta música
    00:00 / 00:00
    Automático
    OK