Cifra Club

Play Some Rock

Liquido

Cifrado: Principal (guitarra y guitarra eléctrica)
tono: F
Îò: for * 
Êîìó: 
Òåìà: New Tabs
Äàòà: 7 èþíÿ 2000 ã. 19:03

 Tabbed by Ludwig Hauf, *.
  

Originally tabbed by Ludwig Hauf, from Germany

The main part:

(Don't care how often the power chords are tabbed here! You can chose
yourself how you wanna play it. Enjoy!
|----------------|  |------------------|  |--------------------|
|----------------|  |------------------|  |--------------------|
|----------------|  |------------------|  |--------------------|
|-3-3-3-3-3-3-3--|  |---5-5-5-5-5-5-5--|  |---8--8--8--10--8---|
|-3-3-3-3-3-3-3--|  |---5-5-5-5-5-5-5--|  |---10-10-10-12-10---|
|-1-1-1-1-1-1-1--|  |---3-3-3-3-3-3-3--|  |---10-10-10-12-10---|

play some rock(2x)   please don't stop    (don't know text here) :-)

|-----------------------------------------|
|-----------------------------------------|
|-----------------------------------------|
|--7-7-7-7-7------5-5-5-5-5-----3-3-3-3-3-|
|--7-7-7-7-7------5-5-5-5-5-----3-3-3-3-3-| 
|--5-5-5-5-5------3-3-3-3-3-----1-1-1-1-1-|

I'm not the only one    not the only one

cya
Lu   *

P.S: Send me comments or other! 
:: Ultimate Guitar Archive :: 
http://* 

00:00 / 00:00
Otros videos de esta canción
Repetir
Otros videos de esta canción
Compositor no encontrado.
27 exhibiciones
    • ½ Tono
    • A
    • Bb
    • B
    • C
    • Db
    • D
    • Eb
    • E
    • F
    • F#
    • G
    • Ab
  • Agregar a la lista
    00:00 / 00:00
    OK