Cifra Club

Hurricane

Lisa Loeb

Cifrado: Principal (guitarra y guitarra eléctrica)
Selo Cifra Club: esta cifra foi revisada para atender aos critérios oficiais da nossa Equipe de Qualidade.
tono: Em
022000  Em
320003  G
xx0230  Dsus2
xx0232  D
032010  C
330012  Gsus
133211  F
224242  B7
x02210  Am
x02200  Asus2


Capo 4th fret for Purple cassette version (Plus tune a up a little).
Cape 5th fret for the Tails album version in standard tuning.

This is the Intro.

    Em        G              Dsus    D Dsus C
E|---------------------3----------0-0h2p0----------------0---------------------|
B|----------------------------3-----------x------1-----1-----------------------|
G|-----------------------0----2-----------x--------0---0-----------------------|
D|---2---------0----0------0--0--------------2-----0h2-2-----------------------|
A|---2---------2-----------------------------3---------------------------------|
E|---0----0-3--3---------------------------------------------------------------|

    Em              G              Dsus   D Dsus C
E|--------------------------------------x-0h2p0---------------0----------------|
B|--------x-3r1-0------------3------3-----------3-----------1------------------|
G|----------------0--------------0--2-------------0-----0---0------------------|
D|----------------------0------0----0-------------2-----0h2-2------------------|
A|------------------------------------------------3----------------------------|
E|---0--------------3----------------------------------------------------------|


The rest of the song in the main verses now takes on that same chord pattern
and plays the same thing.  There are some minor little differences, mostly
just not as many pull offs...if you got the intro, you can figure out what's
missing or added in the verses no problem.  I've only put the chords down
for the verses(except where I tabbed it), so play like the intro for most of
it, except for the few places she just strums....just strum.
The lyrics are different than written on the purple tape.  Any differences
will be in ()'s.

Em                  G
Skeleton boy on the side of the road.

Dsus2    D Dsus2 D C           Em   G   Dsus2 D Dsus2 C
     He warned me, he told me;

          Em                          G
he said, "there's this woman, she's a hurricane,

         Dsus2     D Dsus2   C          Em    G    Dsus2  D  Dsus2  C
she will heal your heart up, she is hurrying."


She said,(In the Purple cassette tape, it has it down has He said...??)


    Bm
E|-----------------------------------------------------------------------------|
B|---------3------------3-------------3--------------3-------------------------|
G|-------4------4-----4-------4-----4-------4------4---------------------------|
D|-----4------4-----4-------------4-------4------4-----------------------------|
A|---2------------2---------2---3--------------3-------------------------------|
E|-----------------------------------------------------------------------------|
"Don't look for holiday's.  Don't look just run away.

G                 Gsus
Go suffocate, and choke your own cry.


G            Em
Go where the water,

          F            B7                  Em  G   Dsus2  D Dsus2  C
where the water, seeps from the pink sky.


Em   G    Dsus2   D Dsus2  C


Em                             G
But behead this woman, whe's a hurricane.

         Dsus2     D  Dsus2  C                Em   G   Dsus2  D Dsus2 C
she will heal your heart up, she is hurrying.


    Bm
E|-------------------------------------------------------0---------------------|
B|---------3------------3-------------3------------3-------3-------------------|
G|-------4------4-----4-------4-----4------------4-----4-----------------------|
D|-----4------4-----4-------------4-------4----4-----4-------------------------|
A|---2------------2---------2---3------------3---------------------------------|
E|-----------------------------------------------------------------------------|
Remeber your reflection in a pool, in a puddle


G
And the leaves sped top-speed towards me

Gsus
and my image was muddled.


    Bm
E|--------------------------0--------------------------------------------------|
B|---------3----------3-------3------------------------------------------------|
G|-------4----4-----4-----4-----0----------------------------------------------|
D|-----4----------4-----4------------------------------------------------------|
A|---2----------3--------------------------------------------------------------|
E|-----------------------------------------------------------------------------|

    (There's 16 da-dum's in each line of tab)
    G
E|---3-------------------------------------------------------------------------|
B|---3---3---3---3---3---3---3---3---3---3---3---3---3---3---3---3-------------|
G|---0-0---0---0---0---0---0---0---0---0---0---0---0---0---0---0---0-----------|
D|-----------------------------------------------------------------------------|
A|-----------------------------------------------------------------------------|
E|-----------------------------------------------------------------------------|
I'm a lightheaded wonder (she said,) Don't you see my mind slow down?


    C               Am      C                       Am
E|-----------------------------------------------------------------------------|
B|---1---1---1---1---1---1---1---1---1---1---1---1---1---1---1---1-------------|
G|---0-0---0---0---0-2-2---2---0---0---0---0---0---0-2-2---2---0---0-----------|
D|-----------------------------------------------------------------------------|
A|-----------------------------------------------------------------------------|
E|-----------------------------------------------------------------------------|

    G
E|-----------------------------------------------------------------------------|
B|---3---3---3---3---3---3---3---3---3---3---3---3---3---3---3---3-------------|
G|---0-0---0---0---0---0---0---0---0---0---0---0---0---0---0---0---0-----------|
D|-----------------------------------------------------------------------------|
A|-----------------------------------------------------------------------------|
E|-----------------------------------------------------------------------------|
I'm a lightheaded wonder don't you see my mind slow down?

    C               Am      C                       Am      C
E|-----------------------------------------------------------------------------|
B|---1---1---1---1---1---1---1---1---1---1---1---1---1---1---1---1-------------|
G|---0-0---0---0---0-2-2---2---0---0---0---0---0---0-2-2---2---0---0-----------|
D|-----------------------------------------------------------------------------|
A|-----------------------------------------------------------------------------|
E|-----------------------------------------------------------------------------|
                            Slow Down

    G
E|---3-------------------------------------------------------------------------|
B|---3---3---3---3---3---3---3---3---3---3---3---3---3---3---3---3-------------|
G|---0-0---0---0---0---0---0---0---0---0---0---0---0---0---0---0---0-----------|
D|-----------------------------------------------------------------------------|
A|-----------------------------------------------------------------------------|
E|-----------------------------------------------------------------------------|
I've compassion for strangers, an affinity for danger- won't you


    Am  C                           Am              Asus2
E|-----------------------------------------------------------------------------|
B|---1---1---1---1---1---1---1---1---1---1---1---1---0---0---0---0-------------|
G|---2-2---0---0---0---0---0---0---0---2---2---2---2---2---2---2---2-----------|
D|-----------------------------------------------------------------------------|
A|-----------------------------------------------------------------------------|
E|-----------------------------------------------------------------------------|
        be my sacrifice?

    G
E|---3-------------------------------------------------------------------------|
B|---3---3---3---3---3---3---3---3---3---3---3---3---3---3---3---3-------------|
G|---0-0---0---0---0---0---0---0---0---0---0---0---0---0---0---0---0-----------|
D|-----------------------------------------------------------------------------|
A|-----------------------------------------------------------------------------|
E|-----------------------------------------------------------------------------|
I'm a lightheaded wonder don't you see my mind slow down

      C                      Am   Asus2  Am
      for you?    (or) For you?

               Em                       G
No-.  You're a headless woman, you're a hurricane.

         Dsus2   D  Dsus2   C
You will heal my heart up?

           Em          G                 Dsus2   D  Dsus2   C
No, I will heal my own heart up, you are hurting.

Em
I'm a sunburn slap

    Bm
E|-----------------------------------------------------------0-----------------|
B|---------3----------3---------3----------3-----------3-------3---------------|
G|-------4----------4---------4----------4-----4-----4-----4-------4-----------|
D|-----4----------4---------4----------4-----------4-----4-------4-------------|
A|---2----------3---------3----------2-----------3---------------3-------------|
E|------------------------0----------------------------------------------------|
Upon your arm, I'll twist you 'til you break.  And you're a hurricane.


    Em        G              Dsus    D Dsus C
E|-------------3-------------0-0h2p0--------------0-----------------------|
B|---0---------3------0--3---3-3-----1---1-----1--------------------------|
G|---0---------0----0----2-----------0-----0---0--------------------------|
D|---2---------0---------0-----------2-----0h2-2--------------------------|
A|---2---------2---------------------3------------------------------------|
E|---0----0-3--3----------------------------------------------------------|

    Em              G              Dsus   D Dsus C
E|---------------------------3----------0-0h2p0-------------------0------------|
B|----------3r1-0------------3------3---3-3-----3-----3-----------0--0---------|
G|--------0-0| ---0--------------0--2-------------0-------------0----0---------
D|----------------------0------0----0-------------2-----0h2p0--------2---------|
A|------------------------------------------------3-----3-----3------2---------|
E|---0--------------3------------------------------------------------0---------|
Otros videos de esta canción
    86 exhibiciones
      • ½ Tono
      • Am
      • Bbm
      • Bm
      • Cm
      • C#m
      • Dm
      • Ebm
      • Em
      • Fm
      • F#m
      • Gm
      • G#m
    • Agregar a la lista

    Afinación de cifrado

    Afinador online

      OK