Cifra Club

Crossing Field (acoustic)

LiSA

Cifrado: Principal (guitarra y guitarra eléctrica)
Já pensou em usar uma coleção de roupas do Cifra Club? Responda as perguntas abaixo e nos ajude nessa missão! →
tono: G
Intro: 

E|------------8------------10--10-p-8----------6-------------|--13----12--8--8-h-10--8-h-10--|
B|--6--8--10-------6-----------------------10-----10--8--10--|-------------------------------|
G|--------------------9--------------------------------------|-------------------------------|
D|-----------------------------------------------------------|-------------------------------|
A|-----------------------------------------------------------|-------------------------------|
E|-----------------------------------------------------------|-------------------------------|

Em            Em
Mitometeta okubyou na kako
    C2   D
Wakaranai mama ni
Em                  Em
Kowagatteta ushiro no jibun ga genjitsu wo
C2    D
Ima ni utsusu

C2     D    Em7      A
Ikutsu mono sora wo kaita
C
Koko wa kitto hakanai kokoro
  G      B
Mizashite

        Em7   D    C2
Yume de takaku tonda
      D      C9
Karada wa donna
                Am         B
Fuan matottemo furiharatteku
        Em7   D    C2
Nemuru chiisana omoi
   D         C9
Hirogaritashite kidzuku yowai watashi
Am         B
Kimi ga ireba
      C9       D       Em  F#m7 Gm7 Am7 (de pestana)
Kurai sekai tsuyoku ireta
        C9        D          Em
Nagai yumemiru kokoro wa sou eien de


Em7       D               C2
I wanna always stay with you
            D             C9
I give you everything I have

ou:
E|--------------------------------------------------------------------|      
B|--10---------------------------------10-----------------------------|      
G|------12--10--12--9----------------------12--10--12--9----------10--|      I wanna always stay with you
D|---------------------10--14--12-------------------------10--14------|      I give you everything I have
A|--------------------------------------------------------------------|      
E|--------------------------------------------------------------------|
Compositor não encontrado.
Colaboración y revisión:
  • Igor Ribeiro
  • Leonardo Santos
942 vistas
    • ½ Tono
    • A
    • Bb
    • B
    • C
    • Db
    • D
    • Eb
    • E
    • F
    • F#
    • G
    • Ab
  • Agregar a la lista

    0 comentarios

    Ver todos los comentarios

    ¿Lograste tocar?

    3 Tocaron 0 Aún no

    ¡Graba un video tocando Crossing Field (acoustic) y envíanoslo!

    00:00 / 00:00
    Outros vídeos desta música
    Repetir Calidad Automático
    Outros vídeos desta música
    00:00 / 00:00
    Automático
    OK