Cifra Club

Canción de amor

Lisandro Aristimuño

Cifrado: Principal (guitarra y guitarra eléctrica)
tono: D
Este Riff1 se repite en todas las estrofas.

E|-------0/2-------------------------------------------|
B|-----3----3----------------3--2--0-------------------|
G|---2--------2---0--0--0-0------------2---------------|
D|-0---------------------------------------------------|
A|-----------------------------------------------------|
E|--------------2--2--3--3--3--3--3--3-----------------|

E|-------0/2-------------------------------------------|
B|----------3----------------3--2--0-------------------|
G|---2-----------0--0--0-0------------2----------------|
D|-0---0------0----------------------------------------|
A|-----------------------------------------------------|
E|--------------2--2--3--3--3--3--3--3-----------------|

D                          G
Pido que las noches no se quiebren en tu luz
  D                          G
Y que las ventanas sean grandes para el sol
  D                         G
Cuando los almendros no se pasen de estacion
 D                          G               D
Buscare mas flores para darte mi cancion de amor

D                           G
Pido atardeceres en los cielos de beltran
  D                        G
Y que tus mañanas siempre sean para hablar
  D                       G
Cuando los jardines no se pasen de estacion
  D                      G                  D
Buscare mas flores para darte mi cancion de amor

A                 Bm
Y si vos queres te voy a buscar
  G                      D
Para que los dias no se vallan sin pensar
 A                 Bm
Y si vos queres te paso a buscar
  G                   A              D
Y dejamos los caminos libres de humedad

Riff2 sobre riff1 (fijense que es lento, busquen el tiempo)

E|-----------------------------------------------|
B|-----------------------------------------------|
G|--4/7--7-9-11-4-2-------4/7--7-9-11--14-14-11--|
D|-----------------------------------------------|
A|-----------------------------------------------|
E|-----------------------------------------------|


D                    G
Pido tu mirada mas alegre para mi
 D                        G
Y que toda el alma se disuelva en el amor
 D                          G
Cuando los almendros no se pasen de estacion
 D                      G                     D
Buscare mas flores para darte mi cancion de amor

A                 Bm
Y si vos queres te voy a buscar
  G                      D
Para que los dias se nos vallan sin pensar
 A                 Bm
Y si vos queres te paso a buscar
  G                   A              D
Y dejamos los caminos libres de humedad

Final
E|-----------------------------------------------|
B|---------3-----3---------------------------------|
G|-------2---2-----2--------------------------------|
D|-----0-------0-----------------------------------|
A|---0--------------------------------------------|
E|-----------------------------------------------|
esto y despues riff1, despues sobre riff1 hace riff2
00:00 / 00:00
Otros videos de esta canción
Repetir
Otros videos de esta canción
Composición de Lisandro Aristimuño
1.206 exhibiciones
    • ½ Tono
    • A
    • Bb
    • B
    • C
    • Db
    • D
    • Eb
    • E
    • F
    • F#
    • G
    • Ab
  • Agregar a la lista
    00:00 / 00:00
    OK