Cifra Club

My own worst enemy

LIT

Cifrado: Principal (guitarra y guitarra eléctrica)
Selo Cifra Club: esta cifra foi revisada para atender aos critérios oficiais da nossa Equipe de Qualidade.
tono: G
Intro:
e|--------------------------------------------------------------------|
B|--------------------------------------------------------------------|
G|--8/9-9999999---8/9-9999--------------------------------------------|
D|--x/x-xxxxxxx---x/x-xxxx-9-7----------------------------------------|
A|--6/7-7777777---6/7-7777-9-7----------------------------------------|
E|-------------------------7-5----------------------------------------|

Verse:
e|--------------------------------------------------------------------|
B|--------------------------------------------------------------------|
G|--------------------------4-----------------------------------------|
D|--2-2---22-2---22-2---22--4-7---------------------------------------|
A|--2-2---22-2---22-2---22--2-7---------------------------------------|
E|--0-0---00-0---00-0---00----5---------------------------------------|

Chorus:w/fill
e|--------------------------------------------------------------------|
B|--------------------------------------------------------------------|
G|--------------------------------------------------------------------|
D|--22222222-44444444-77777777-99999999-------------------------------|
A|--22222222-44444444-77777777-99999999-------------------------------|
E|--00000000-22222222-55555555-77777777-------------------------------|

Fill:
e|--------------------------------------------------------------------|
B|--------------------------------------------------------------------|
G|---9999999999999999-11-11-11-11-11-11-11-11-14-14-14-14-16-16-16-16-|
D|--------------------------------------------------------------------|
A|--------------------------------------------------------------------|
E|--------------------------------------------------------------------|

Solo:
e|--------------------------------------------------------------------|
B|--------------------------------------------------------------------|
G|--8/9--9-9-9-9-9-9-9--8/9--9-9-9-9-9/11-11--------------------------|
D|--x/x--x-x-x-x-x-x-x--x/x--x-x-x-x-x/x--x-----(2X)------------------|
A|--6/7--7-7-7-7-7-7-7--6/7--7-7-7-7-7/9--9---------------------------|
E|--------------------------------------------------------------------|

e|--------------------------------------------------------------------|
B|--------------------------------------------------------------------|
G|--11/13--11-11-11-11-11-11-11--11/13--13-13-13-13-13/14-------------|
D|---x/-x---x--x--x--x--x--x--x---x/-x---x--x--x--x--x/-x-------------|
A|---9/11--11-11-11-11-11-11-11---9/11--11-11-11-11-11/12-------------|
E|--------------------------------------------------------------------|

e|--------------------------------------------------------------------|
B|--------------------------------------------------------------------|
G|--14/16-16-16-16/18-18-18-18\16-16-16-16\14-14-14-14\13-13-13-------|
D|---x/-x--x--x--x/-x--x--x--x\-x--x--x--x\-x--x--x--x\-x--x--x-------|
A|--12/14-14-14-14/16-16-16-16\14-14-14-14\12-12-12-12\11-11-11-------|
E|--------------------------------------------------------------------|

e|--------------------------------------------------------------------|
B|--------------------------------------------------------------------|
G|--13/14-14-14-14\13-13-13--13\11-11-11------------------------------|
D|---x/-x--x--x--x\-x--x--x---x\-x--x--x------------------------------|
A|--11/12-12-12-12\11-11-11--11\-9--9--9------------------------------|
E|--------------------------------------------------------------------|
Otros videos de esta canción
    212 exhibiciones
      • ½ Tono
      • A
      • Bb
      • B
      • C
      • Db
      • D
      • Eb
      • E
      • F
      • F#
      • G
      • Ab
    • Agregar a la lista

    Afinação da cifra

    Afinador online

      Ops (: Contenido disponible solo en portugués.
      OK