Cifra Club

The Best is Yet to Come Undone

LIT

Cifrado: Principal (guitarra y guitarra eléctrica)
Selo Cifra Club: esta cifra foi revisada para atender aos critérios oficiais da nossa Equipe de Qualidade.
tono: E
Eb|--------------------------------------------------------------|
Bb|--------------------------------------------------------------|
Gb|----------------------------------2-2-2-2-2-2-2-2-2-2-2-2-2--|
Db|--X-X-0--X-X-X-0--X-X-0--X-X-X-0--2-2-2-2-2-2-2-2-2-2-2-2-2--|
Ab|--X-X-0--X-X-X-0--X-X-0--X-X-X-0--0-0-0-0-0-0-0-0-0-0-0-0-0--|
Db|--X-X-0--X-X-X-0--X-X-0--X-X-X-0------------------------------|

It's behind you and
It's in your face
Close your eyes
Selling years of their
Smoke and mirrors and
Open minds

Eb|-----------------------------------|
Bb|-----------------------------------|
Gb|-----------------------------------|
Db|--5-5-5-5-5-5-5-5-5-5-5-5-5-5------|
Ab|--5-5-5-5-5-5-5-5-5-5-5-5-5-5------|
Db|--5-5-5-5-5-5-5-5-5-5-5-5-5-5------|

And they try to find a way
To make me something that I'm not

Eb|-------------------------------|
Bb|-------------------------------|
Gb|------3---5--------------------|
Db|--3---3---5--------------------|
Ab|--3---1---3--------------------|
Db|--3----------------------------|

I touched the world
I felt the sun
I know the best is yet to come undone
I looked around
At everyone
I know the best is yet to come undone
The best is yet to come undone

Eb|--------------------------------------------------------------|
Bb|--------------------------------------------------------------|
Gb|----------------------------------2-2-2-2-2-2-2-2-2-2-2-2-2--|
Db|--X-X-0--X-X-X-0--X-X-0--X-X-X-0--2-2-2-2-2-2-2-2-2-2-2-2-2--|
Ab|--X-X-0--X-X-X-0--X-X-0--X-X-X-0--0-0-0-0-0-0-0-0-0-0-0-0-0--|
Db|--X-X-0--X-X-X-0--X-X-0--X-X-X-0------------------------------|

It's so obvious
That the promise
Keeps me here
Painting pictures where
All the colors
Disappear

Eb|-------------------------------|
Bb|-------------------------------|
Gb|------3---5--------------------|
Db|--3---3---5--------------------|
Ab|--3---1---3--------------------|
Db|--3----------------------------|

And they try to find a way
To make me something that I'm not

Eb|-------------------------------|
Bb|-------------------------------|
Gb|------3---5--------------------|
Db|--3---3---5--------------------|
Ab|--3---1---3--------------------|
Db|--3----------------------------|

I touched the world
I felt the sun
I know the best is yet to come undone
I looked around
At everyone
I know the best is yet to come undone
The best is yet to come undone
The best is yet to come un...

Eb|-------------------------------|
Bb|-------------------------------|
Gb|--7---2---5--------------------|
Db|--7---2---5---3---5------------|
Ab|--5---0---3---3---5------------|
Db|--------------3---5------------|

And I find my way out
And I find my way out

Solo

Eb|---------------------------------|-----------------------------------------------|
Bb|---14-15-17~~-14~~-15~~~~-10~~~~-|---14-15-17~~-14~~-15~~~~-10~~~~-8~~-7~~------|
Gb|---------------------------------|-----------------------------------------------|
Db|---------------------------------|-----------------------------------------------|
Ab|---------------------------------|-----------------------------------------------|
Db|---------------------------------|---------------------------------------------------|



Eb|--------------------------------------------------------------|
Bb|--------------------------------------------------------------|
Gb|----------------------------------2-2-2-2-2-2-2-2-2-2-2-2-2--|
Db|--X-X-0--X-X-X-0--X-X-0--X-X-X-0--2-2-2-2-2-2-2-2-2-2-2-2-2--|
Ab|--X-X-0--X-X-X-0--X-X-0--X-X-X-0--0-0-0-0-0-0-0-0-0-0-0-0-0--|
Db|--X-X-0--X-X-X-0--X-X-0--X-X-X-0------------------------------|

It's so obvious
That the promise
Keeps me here
Painting pictures where
All the colors
Disappear


Eb|-----------------------------------|
Bb|-----------------------------------|
Gb|-----------------------------------|
Db|--5-5-5-5-5-5-5-5-5-5-5-5-5-5------|
Ab|--5-5-5-5-5-5-5-5-5-5-5-5-5-5------|
Db|--5-5-5-5-5-5-5-5-5-5-5-5-5-5------|

And they try to find a way
To make me something that I'm not

Eb|-------------------------------|
Bb|-------------------------------|
Gb|------3---5--------------------|
Db|--3---3---5--------------------|
Ab|--3---1---3--------------------|
Db|--3----------------------------|

I touched the world
I felt the sun
I know the best is yet to come undone
I looked around
At everyone
I know the best is yet to come undone
The best is yet to come undone
Otros videos de esta canción
    17 exhibiciones
      • ½ Tono
      • A
      • Bb
      • B
      • C
      • Db
      • D
      • Eb
      • E
      • F
      • F#
      • G
      • Ab
    • Agregar a la lista

    Afinação da cifra

    Afinador online

      Ops (: Contenido disponible solo en portugués.
      OK