Cifra Club

Prima Guardia

Litfiba

Cifrado: Principal (guitarra y guitarra eléctrica)
Selo Cifra Club: esta cifra foi revisada para atender aos critérios oficiais da nossa Equipe de Qualidade.
tono: D
[Intro]
             Em
E|---------0-0-0-|-0-0-0-0-0-|
B|-3-2-0---0-0-0-|-0-0-0-0-0-|
G|-------2-0-0-0-|-0-0-0-0-0-|
D|-----------2-2-|-2-2-2-2-2-|
A|-------------2-|-2-2-2-2-2-|
E|-------------0-|-0-0-0-0-0-|

            Em
E|-------------|-0-0-0-0-0-|
B|-------------|-0-0-0-0-0-|
G|-----------0-|-0-0-0-0-0-|
D|-------2---2-|-2-2-2-2-2-|
A|-0-2-5---5-2-|-2-2-2-2-2-|
E|-----------0-|-0-0-0-0-0-|

             Em
E|---------0-0-0-|-0-0-0-0-0-|
B|-3-2-0---0-0-0-|-0-0-0-0-0-|
G|-------2-0-0-0-|-0-0-0-0-0-|
D|-----------2-2-|-2-2-2-2-2-|
A|-------------2-|-2-2-2-2-2-|
E|-------------0-|-0-0-0-0-0-|
             
                         Limite prima guardia

            Em
E|-----------0-|-0-0-0-0-0-|
B|-----------0-|-0-0-0-0-0-|
G|---------0-0-|-0-0-0-0-0-|
D|---------2-2-|-2-2-2-2-2-|
A|-5-4-2-0-2-2-|-2-2-2-2-2-|
E|---------0-0-|-0-0-0-0-0-|

[Verse]
 Em                  G                  Em
Torri come pere il silenzio è già passato
 D             G           A      G       Em
nei corridoi resta il fumo della prima guardia
 Em                  G               Em
Uomo col fucile il nemico è la tua noia
 D                   G        D           A          Em
Sei prigioniero e resti solo a difenderti dal freddo
 Em                  G             Em
Nuoto nel nero dove sfioro le tue mani
 D                   G           A       G      Em
Poi apro gli occhi steso in aria è la prima guardia
 D                   G         D         A
Esplode il mondo e resto solo dalle mani nasce un fiume

[Riff]
 G                    D
E|-7--12-7-10--12----|-12--7-10-12-10-7-|
B|----------------10-|------------------|
G|-------------------|------------------|
D|-------------------|------------------|
A|-------------------|------------------|
E|-------------------|------------------|

  A                     Em
E|-----12-7-10-12-10-7-|--12--7-10-12-10-|
B|-10------------------|-----------------|
G|---------------------|-----------------|
D|---------------------|-----------------|
A|---------------------|-----------------|
E|---------------------|-----------------|

[Chorus]
 G               D    A              Em
L'alba è un miraggio che m'esplode dentro
 G               D         A       Em
E scuserai se parlo una lingua diversa

 Em
E|-12-7-10-12-10-7-7-|----15-14--12-10--|
B|-------------------|------------------|
G|-------------------|------------------|
D|-------------------|------------------|
A|-------------------|------------------|
E|-------------------|------------------|

 G             D   A    Em
Un anno è un secolo 365 croci
 G             D    A               Em
E la tua privazione mi taglia la testa

[Verse]
 Em                    G                   Em
Uomo col fucile prigioniero della tua bandiera
 D               G           A      G        Em
Corri in tondo testa in fumo è la prima guardia
 Em                     G            Em
Torri come pere ma il nemico non esiste
 D                  G         D           A
Esplode il nulla e resto solo a difendermi dal buio

[Chorus]
 G          D    A              Em
Grido l'allarme che m'esplode dentro
 G                    D     A          Em
Perchè noi siamo al mondo problemi diversi
 G             D   A    Em
Un anno è un secolo 365 croci
 G             D    A               Em
E la tua privazione mi taglia la testa
 Em
Avevo una testa

[Solo]
G D A Em

[Chorus]
 G             D   A    Em
Un anno è un secolo 365 croci
 G             D    A               Em
E la tua privazione mi taglia la testa
 G          D    A              Em
Grido l'allarme che m'esplode dentro
 G          D     A             Em
Perchè lo so che siamo problemi diversi
         G         D     A   G    Em
Lingue diverse    (Riff)
 G                   D         A     G     Em
Trasforma il tuo fucile in un gesto piů civile.
Otros videos de esta canción
    5 exhibiciones
      • ½ Tono
      • A
      • Bb
      • B
      • C
      • Db
      • D
      • Eb
      • E
      • F
      • F#
      • G
      • Ab
    • Agregar a la lista

    Afinação da cifra

    Afinador online

      Ops (: Contenido disponible solo en portugués.
      OK